Cifra Club

Ratfinks Suicide Tanks And Cannibal Girls

White Zombie

Cifra: Principal (violão e guitarra)
Selo Cifra Club: esta cifra foi revisada para atender aos critérios oficiais da nossa Equipe de Qualidade.
tom: E
[Intro] x
       Eb    A5.      Eb.  A5.   A5.    G
E|----------------------------------------|
B|----------------------------------------|
G|----------------------------------------|
D|------2----7br------2----7br---7/----5--| x4
A|------2----7br------2----7br---7/----5--|
E|------0----5br------0----5br---5/----3--|

[Verse]
             Eb
E|---------------------------------------------------------------------------------|
B|---------------------------------------------------------------------------------|
G|---------------------------------------------------------------------------------|
D|---12/-----2---------------------------------------------------------------------| x2
A|---12/-----0---------------------------------------------------------------------|
E|---------------------------------------------------------------------------------|



************************************

| b   Bend
| br  Bend release
| /   Slide up
| x   Dead note
Outros vídeos desta música
      • ½ Tom
      • A
      • Bb
      • B
      • C
      • Db
      • D
      • Eb
      • E
      • F
      • F#
      • G
      • Ab
    • Adicionar à lista

    Afinação da cifra

    Afinador online

      0 comentários

      Ver todos os comentários

      Entre para o Cifra Club PRO

      Tenha acesso a benefícios exclusivos no App e no Site

      • Chega de anúncios

      • Mais recursos no app do Afinador

      • Atendimento Prioritário

      • Aumente seu limite de lista

      • Ajude a produzir mais conteúdo

      Cifra Club Pro

      Aproveite o Cifra Club com benefícios exclusivos e sem anúncios
      Cifra Club Pro
      Aproveite o Cifra Club com benefícios exclusivos e sem anúncios
      OK