Cifra Club

Ballad Of The Goddess

Zelda

Cifra: Principal (violão e guitarra)
Selo Cifra Club: esta cifra foi revisada para atender aos critérios oficiais da nossa Equipe de Qualidade.
tom: C (forma dos acordes no tom de G) Capotraste na 5ª casa
E|--------0-------3-5----0-----|------------0-----|
B|--------0h1-3---0------3--0--|o-----------3--0-o|
G|---2----0-------0------2-----|---2p0-2----2-----|
D|---2----0-------0------0-----|---0--------0-----|
A|---0----2-------3------------|o--3-------------o|
E|-----------------------------|------------------|

E|--------------0------------3-5-------0-----|-------------0--------|
B|--------------0h1-3--------0---0-----3-0---|o------------3-0-----o|
G|----2---2-----0-----0------0----0----2--2--|---2p0-2-----2---2----|
D|----2--2-2----0------0-----0---------0---0-|---0---------0----0---|
A|----0-0-------2-------2----3---------------|o--3------3--------0-o|
E|-------------------------------------------|----------------------|

E|--------------0------------3-5-------0-----|----------------------|
B|--------------0h1-3--------0---0-----3-0---|o-------------3-0----o|
G|----2---2-----0-----0------0----0----2--2--|---2p0-2------2--2----|
D|----2--2-2----0------0-----0---------0---0-|-----------0--0---0---|
A|----0-0-------2-------2----3---------------|o------------------0-o|
E|-------------------------------------------|---1------1---3-------|

E|----0--------------------------------------------------------------------|
B|----1---1----3p1-0------1-0-----3----0-------------0---------------------|
G|----0--0-0--------0---------2---0---0----0---0---2---0-------0---2---2---|
D|----2-2------------0------------0--0--------2------------2--2-------4-4--|
A|----3--------2------2---0------------------2---------------0-----0-0-----|
E|--------------------------------3--------0-------2-------3---------------|

E|----0---0----------------------------------------------------|-0-0-0-0-0-0-0-0-0-0---12-12s1--|
B|----1--------3p1-0------1-0-----3----0-------------0---------|-0-0-0-0-0-0-0-0-0-0---12-12s1--|
G|----0--0-0--------0---------2---0---0----0---0---2---0-------|-1-1-1-1-1-1-1-1-1-1---12-12s1--|
D|----2-2------------0------------0--0--------2------------2---|-2-2-2-2-2-2-2-2-2-2---12-12s1--|
A|----3--------2------2---0------------------2---------------2-|-2-2-2-2-2-2-2-2-2-2---12-12s1--|
E|--------------------------------3--------0-------2-------0---|-0-0-0-0-0-0-0-0-0-0---12-12s1--|

E|------------0-----------3-5------0-----|----------------------|
B|--------0---0h1-3-------0---0----3-0---|o-------------3-0----o|
G|----2--2----0-----0-----0--------2--2--|---2p0-2------2--2----|
D|----2-------0------0----0--------0---0-|-----------0--0---0---|
A|----0-------2-------2---3--------------|o------------------0-o|
E|------0--------------------------------|---1------1---3-------|

E|--------------0------------3-5-------0-----|----------------------|
B|--------------0h1-3--------0---0-----3-0---|o-------------3-0----o|
G|----2---2-----0-----0------0----0----2--2--|---2p0-2------2--2----|
D|----2--2-2----0------0-----0---------0---0-|-----------0--0---0---|
A|----0-0-------2-------2----3---------------|o------------------0-o|
E|-------------------------------------------|---1------1---3-------|

     ^   ^ v ^ ^
E|---0---0-0-0-0--|
B|---0---0-0-0-0-o|
G|---2---2-2-2-2--|
D|---2---2-2-2-2--|
A|---0---0-0-0-0-o|
E|---0---0-0-0-0--| (3x)

Outros vídeos desta música
5.234 exibições
    • ½ Tom
    • A
    • Bb
    • B
    • C
    • Db
    • D
    • Eb
    • E
    • F
    • F#
    • G
    • Ab
  • Adicionar à lista

Afinação da cifra

Afinador online

    0 comentários

    Ver todos os comentários

    Entre para o Cifra Club PRO

    Tenha acesso a benefícios exclusivos no App e no Site

    • Chega de anúncios

    • Mais recursos no app do Afinador

    • Atendimento Prioritário

    • Aumente seu limite de lista

    • Ajude a produzir mais conteúdo

    Cifra Club Pro

    Aproveite o Cifra Club com benefícios exclusivos e sem anúncios
    Cifra Club Pro
    Aproveite o Cifra Club com benefícios exclusivos e sem anúncios
    OK