Cifra Club

Kakariko Village Theme

Zelda

Cifra: Principal (violão e guitarra)
Selo Cifra Club: esta cifra foi revisada para atender aos critérios oficiais da nossa Equipe de Qualidade.
tom: Bb
Intro

E|----------------------------------1-----------------
B|--------3-------------------------------------------
G|------3---3--------0-3-0------0-3---3-0--------2----
D|----3-------3----0-------0-------------------3---3--
A|--1-------------------------3--------------3-------3
E|---------------3-------------------------1----------

Main Theme

E|----------------1-------------------1-----1-3-------3-1------------------
B|----------3-------------------3---------------------------3---3---3---1--
G|----3---------3---------3---------3-------------2-----------------------3
D|--3-----3-------------3-----3--------------------------------------------
A|-------------------------------------------------------------------------
E|------------------------------------------------------------------------- x2

E|------------------------------------------------------------1--------------
B|------------1--------------------------------------1------------4---3---1--
G|--3-3---2------3-------------------------3-3---2------3-------------------3
D|-------------------3---1---0-1---3-0----------------------3----------------
A|---------------------------------------------------------------------------
E|---------------------------------------------------------------------------
Outros vídeos desta música
10.556 exibições
    • ½ Tom
    • A
    • Bb
    • B
    • C
    • Db
    • D
    • Eb
    • E
    • F
    • F#
    • G
    • Ab
  • Adicionar à lista

Afinação da cifra

Afinador online

    0 comentários

    Ver todos os comentários

    Entre para o Cifra Club PRO

    Tenha acesso a benefícios exclusivos no App e no Site

    • Chega de anúncios

    • Mais recursos no app do Afinador

    • Atendimento Prioritário

    • Aumente seu limite de lista

    • Ajude a produzir mais conteúdo

    Cifra Club Pro

    Aproveite o Cifra Club com benefícios exclusivos e sem anúncios
    Cifra Club Pro
    Aproveite o Cifra Club com benefícios exclusivos e sem anúncios
    OK