Cifra Club

Majora's Mask - Song of Healing

Zelda

Cifra: Principal (violão e guitarra)
Selo Cifra Club: esta cifra foi revisada para atender aos critérios oficiais da nossa Equipe de Qualidade.
tom: F
Versão 1:

E |----------------------------|
B |--0-------0-------0---------|
G |----2-------2-------2-------|
D |------3-------3-------2-0-2-|
A |----------------------------|
E |----------------------------| x2

E |----------------------------|
B |----------------------------|
G |----------------------------|
D |--3-------3-------3-2-------|
A |----3-2-----3-2-------2-0-2-|
E |----------------------------|

E |--------------------------|
B |----------------------0---|
G |------------------------0-|
D |--3-------3-------3-2-----|
A |----3-2-----3-2-----------|
E |--------------------------|

E |------------------------|
B |--------3-3-3-------1---|
G |--2-2-2-------0-0-0---0-|
D |------------------------|
A |------------------------|
E |------------------------|

E |----------------------|
B |----------------------|
G |--------3-3-3-----2---|
D |--3-3-3-------2-0---2-|
A |----------------------|
E |----------------------|

E |------------------------|
B |--------3-3-3-------1---|
G |--2-2-2-------0-0-0---0-|
D |------------------------|
A |------------------------|
E |------------------------|

E |----------------------0-|
B |-----------1-3----0-3---|
G |----0-2--3------2-------|
D |--3---------------------|
A |------------------------|
E |------------------------|

Versão 2:

D |--7-----5-----------|--7-----5-----------|--7-----5-----0-----|
A |--------------6-----|--------------6-----|-----------------3--|
F |-----5-----5-----5--|-----5-----5-----5--|-----5-----5--------|
C |--------------------|--------------------|--------------------|
G |--8-----------------|--8-----------------|--8-----------------|
D |--------------------|--------------------|--------------------|

|--0------------|-----------------|--------||--1-----------------|
|---------------|--0----0----0----|--------||--------1-----0-----|
|---------------|-----------------|--------||-----2-----2-----2--|
|--2------------|-----------------|--------||--0-----------------|
|---------------|-----------------|--------||--------------------|
|---------------|-----------------|--------||--------------------|

|--1-----------------|--1-----0-----------|---------------|--1-----------------|
|--------1-----0-----|--------------0-----|--0------------|--------1-----0-----|
|-----2-----2-----2--|-----0-----0-----2--|---------------|-----2-----2-----2--|
|--0-----------------|--------------------|---------------|--0-----------------|
|--------------------|--3-----------------|---------------|--------------------|
|--------------------|--------------------|---------------|--------------------|

|--1-----------------|--1-----0-----7-----|---------------|
|--------1-----0-----|--------------------|--8------------|
|-----2-----2-----2--|-----0-----0-----0--|---------------|
|--0-----------------|--------------------|---------------|
|--------------------|--3-----------------|---------------|
|--------------------|--------------------|---------------|

|-----------------------|--10-----10-----10-----|--------------------|
|--10-----10-----10-----|-----------------------|--8-----8-----8-----|
|-----------------------|-----------------------|--------------------|
|----------8------------|---8-------------8-----|--------7-----------|
|---8--8------8---8--8--|------8---8--8------8--|--7--7-----7--7--7--|
|-----------------------|-----------------------|--------------------|

|--8--------------|--------------------|--6-----6-----6-----|
|--------8--------|--6-----6-----6-----|--------------------|
|-----------------|--------------------|--------------------|
|--7--------------|--------5-----------|--5-----------5-----|
|-----7--7--------|--5--5-----5--5--5--|-----5--5--5-----3--|
|-----------------|--------------------|--------------------|

|--------------5-----|---------------|-----------------------|
|--5-----3-----------|--5------------|--10-----10-----10-----|
|--------------------|---------------|-----------------------|
|--------------------|---------------|----------8------------|
|--3--3--3--3--3--3--|---------------|---8--8------8---8--8--|
|--------------------|---------------|-----------------------|

|--10-----10-----10-----|--------------------|--8--------------|
|-----------------------|--8-----8-----8-----|--------8--------|
|-----------------------|--------------------|-----------------|
|---8-------------8-----|--------7-----------|--7--------------|
|------8---8--8------8--|--7--7-----7--7--7--|-----7--7--------|
|-----------------------|--------------------|-----------------|

|--------------5-----|--6-----8-----10-----|---------------7-----|
|--6-----8-----------|---------------------|--8-----10-----------|
|--------------------|---------------------|---------------------|
|--------------------|---------------------|---------------------|
|--5--5--5--5--5--5--|--5--5--5--5---5--5--|--7--7---7--7--7--7--|
|--------------------|---------------------|---------------------|

|--10-----12--------||
|-------------------||
|-------------------||
|-------------------||
|---7--7---9--------||
|-------------------||
Outros vídeos desta música
16.679 exibições
    • ½ Tom
    • A
    • Bb
    • B
    • C
    • Db
    • D
    • Eb
    • E
    • F
    • F#
    • G
    • Ab
  • Adicionar à lista

Afinação da cifra

Afinador online

    0 comentários

    Ver todos os comentários

    Entre para o Cifra Club PRO

    Tenha acesso a benefícios exclusivos no App e no Site

    • Chega de anúncios

    • Mais recursos no app do Afinador

    • Atendimento Prioritário

    • Aumente seu limite de lista

    • Ajude a produzir mais conteúdo

    Cifra Club Pro

    Aproveite o Cifra Club com benefícios exclusivos e sem anúncios
    Cifra Club Pro
    Aproveite o Cifra Club com benefícios exclusivos e sem anúncios
    OK