Cifra Club

Song Of Storms

Zelda

Cifra: Principal (violão e guitarra)
Selo Cifra Club: esta cifra foi revisada para atender aos critérios oficiais da nossa Equipe de Qualidade.
tom: Dm
[Tab - Violão Base]

   Dm    Em     F       Em
E|---5-5-----7----8--8------7---------------|
B|---6-6-----8----10-10-----8---------------|
G|---7-7---9------10-10---9-----------------|
D|------------------------------------------|
A|-5-----7------8-------7-------------------|
E|------------------------------------------|

   Dm    Em     F       Em
E|---5-5-----7----8--8------7---------------|
B|---6-6-----8----10-10-----8---------------|
G|---7-7---9------10-10---9-----------------|
D|------------------------------------------|
A|-5-----7------8-------7-------------------|
E|------------------------------------------|

   Dm    Em   F       Em
E|---5-5---7----8--8----7-------------------|
B|---6-6---8----10-10---8-------------------|
G|---7-7---9----10-10---9-------------------|
D|------------------------------------------|
A|-5-----7----8-------7---------------------|
E|------------------------------------------|

   Bb7M  F    Bb7M  A
E|---5-5---5----5-5---5---------------------|
B|---6-6---6----6-6---5---------------------|
G|---7-7---5----7-7---6---------------------|
D|-8----------8-----7-----------------------|
A|-------8----------------------------------|
E|------------------------------------------|

   Dm    Em   F       Em
E|---5-5---7----8--8----7-------------------|
B|---6-6---8----10-10---8-------------------|
G|---7-7---9----10-10---9-------------------|
D|------------------------------------------|
A|-5-----7----8-------7---------------------|
E|------------------------------------------|

   Bb7M  A
E|---5-5---5--------------------------------|
B|---6-6---5--------------------------------|
G|---7-7---6--------------------------------|
D|-8-----7----------------------------------|
A|------------------------------------------|
E|------------------------------------------|

[Tab - Violão Solo]

E|-----10------10--12-13-12-13-12-----------|
B|---6-------6--------------------13-10-----|
G|-7-------7--------------------------------|
D|------------------------------------------|
A|------------------------------------------|
E|------------------------------------------|

E|------------------------------------------|
B|-10------8-10--10------8------------------|
G|----7-10----------7-10---9----------------|
D|------------------------------------------|
A|------------------------------------------|
E|------------------------------------------|

E|-----10------10--12-13-12-13-12-----------|
B|---6-------6--------------------13-10-----|
G|-7-------7--------------------------------|
D|------------------------------------------|
A|------------------------------------------|
E|------------------------------------------|

E|------------------------------------------|
B|-10------8-10--10-------------------------|
G|----7-10----------7-----------------------|
D|------------------------------------------|
A|------------------------------------------|
E|------------------------------------------|
00:00 / 00:00
Outros vídeos desta música
Repetir
Outros vídeos desta música
46.368 exibições
    • ½ Tom
    • Am
    • Bbm
    • Bm
    • Cm
    • C#m
    • Dm
    • Ebm
    • Em
    • Fm
    • F#m
    • Gm
    • G#m
  • Adicionar à lista

Afinação da cifra

Afinador online

    0 comentários

    Ver todos os comentários

    Entre para o Cifra Club PRO

    Tenha acesso a benefícios exclusivos no App e no Site

    • Chega de anúncios

    • Mais recursos no app do Afinador

    • Atendimento Prioritário

    • Aumente seu limite de lista

    • Ajude a produzir mais conteúdo

    00:00 / 00:00

    Cifra Club Pro

    Aproveite o Cifra Club com benefícios exclusivos e sem anúncios
    Cifra Club Pro
    Aproveite o Cifra Club com benefícios exclusivos e sem anúncios
    OK