Cifra Club

La Grange

ZZ Top

Tab de baixo: Principal
[Introdução]

A haw, haw, haw, haw...

Parte 1 de 2
G|----------------------------------------------|
D|----------------------------------------------|
A|-------0-0--0-0--0-0--0-0--0-0--0-0--0-3-5----|
E|-12\5-----------------------------------------|

Parte 2 de 2 ( 3x )
G|----------------------------------------------|
D|----------------------------------------------|
A|-0-0--0-0--0-0--0-0--0-0--0-0--0--3-5---------|
E|----------------------------------------------|

[Primeira parte]

Well, I hear it's fine if you got the time...

Parte 1 de 2 ( 7x )
G|----------------------------------------------|
D|----------------------------------------------|
A|-0-0--0-0--0-0--0-0--0-0--0-0--0--3-5---------|
E|----------------------------------------------|

Parte 2 de 2
G|----------------------------------------------|
D|----------------------------------------------|
A|-0-0--0-0--0-0--0-0--0-0--0-0-----------------|
E|----------------------------------------------|

[Solo de guitarra 01] 

Parte 1 de 2 ( 15x )
G|----------------------------------------------|
D|----------------------------------1-----------|
A|-3-3--3-3--3-3--3-3--3-3--3-3--3--------------|
E|------------------------------------1---------|

Parte 2 de 2
G|----------------------------------------------|
D|----------------------------------------------|
A|-3-3--3-3--3-3--3-3--3-3--3-3--3-3--3-3--3----|
E|----------------------------------------------|

G|----------------------------------------------|
D|------------------7-------------------7-------|
A|-10--9--8--0--5h7----10--9--8--0--5h7---------|
E|----------------------------------------------|

[Solo de guitarra 2]

Parte 1 ( 22 x + fade out )
G|----------------------------------------------|
D|----------------------------------------------|
A|-0-0-3--0-0-0-3--0-0-0-3-0-3-5----------------|
E|----------------------------------------------|
exibições 8.707
Composição: Billy Gibbons / Dusty Hill / Frank Beard Colaboração e revisão:
  • Reginaldo Costa

0 comentários

mostrar mais comentários

Conseguiu tocar?

7 tocaram 0 ainda não

Grave um vídeo tocando La Grange e mande pra gente!

00:00 / 00:00
outros vídeos desta música
repetir qualidade Automático
Outros vídeos desta música
00:00 / 00:00
Automático
Capítulos
  • Tocando a Música
  • Apresentação / Equipamentos
  • TAB - Introdução
  • TAB - Primeira Parte
  • TAB - Solo de Guitarra
  • TAB - Solo de Guitarra 2
  • Encerramento
OK