Notificações Amigos pendentes

      30 Seconds To Mars

      Modern Myth

      39.049 exibições
      Tom: A#
              INTRO
      GUITAR 1 (Acoustic)
      
      |------------|------------|-----------------------|
      |------------|------------|-----------------------|
      |-7---7---7--|------------|-----------------------|
      |-7---7---7--|-8---8---8--|-5---5---5--5---5-/-12-|
      |-5---5---5--|-8---8---8--|-5---5---5--5---5-/-12-|
      |------------|-6---6---6--|-3---3---3--3---3-/-10-|
      
      
      |------------|------------|-----------------------|
      |------------|------------|-----------------------|
      |-7---7---7--|------------|-----------------------|
      |-7---7---7--|-8---8---8--|-10--10--10-10--10--10-|
      |-5---5---5--|-8---8---8--|-10--10--10-10--10--10-|
      |------------|-6---6---6--|-8---8---8--8---8---8--|
      
      
      GUITAR 2 (Acoustic Palm Mute)
      
      |------------|------------|-----------------------|
      |------------|------------|-----------------------|
      |-777-777-77-|------------|-----------------------|
      |-777-777-77-|-888-888-88-|-555-555-55-555-555-55-|
      |-555-555-55-|-888-888-88-|-555-555-55-555-555-55-|
      |------------|-666-666-66-|-333-333-33-333-333-33-|
      
      
      |------------|------------|-----------------------|
      |------------|------------|-----------------------|
      |-777-777-77-|------------|-555-555-55-555-555-55-|
      |-777-777-77-|-888-888-88-|-555-555-55-555-555-55-|
      |-555-555-55-|-888-888-88-|-333-333-33-333-333-33-|
      |------------|-666-666-66-|-----------------------|
      
      
              VERSE 1
      GUITAR 1 (Acoustic)
      
      |------------|------------|-----------------------|
      |------------|------------|-----------------------|
      |-7---7---7--|------------|-----------------------|
      |-7---7---7--|-8---8---8--|-5---5---5--5---5---5--|
      |-5---5---5--|-8---8---8--|-5---5---5--5---5---5--|
      |------------|-6---6---6--|-3---3---3--3---3---3--|
      
      
      |------------|------------|-----------------------|
      |------------|------------|-----------------------|
      |-7---7---7--|------------|-----------------------|
      |-7---7---7--|-8---8---8--|-10--10--10-10--10--10-|
      |-5---5---5--|-8---8---8--|-10--10--10-10--10--10-|
      |------------|-6---6---6--|-8---8---8--8---8---8--|
      
      
      GUITAR 2 (Acoustic Palm Mute)
      
      |------------|------------|-----------------------|
      |------------|------------|-----------------------|
      |-777-777-77-|------------|-----------------------|
      |-777-777-77-|-888-888-88-|-555-555-55-555-555-55-|
      |-555-555-55-|-888-888-88-|-555-555-55-555-555-55-|
      |------------|-666-666-66-|-333-333-33-333-333-33-|
      
      
      |------------|------------|-----------------------|
      |------------|------------|-----------------------|
      |-777-777-77-|------------|-555-555-55-555-555-55-|
      |-777-777-77-|-888-888-88-|-555-555-55-555-555-55-|
      |-555-555-55-|-888-888-88-|-333-333-33-333-333-33-|
      |------------|-666-666-66-|-----------------------|
      
      
              CHORUS 1
      GUITAR 1 (Acoustic)
      
      |-----------------------|-----------------------|
      |-----------------------|-----------------------|
      |-----------------------|-----------------------|
      |-8---8---8--8---8---8--|-10--10--10-10--10--10-|
      |-8---8---8--8---8---8--|-10--10--10-10--10--10-|
      |-6---6---6--6---6---6--|-8---8---8--8---8---8--|
      
      
      GUITAR 2 (Acoustic Palm Mute)
      
      |-----------------------|-----------------------|
      |-----------------------|-----------------------|
      |-333-333-33-333-333-33-|-555-555-55-555-555-55-|
      |-333-333-33-333-333-33-|-555-555-55-555-555-55-|
      |-111-111-11-111-111-11-|-333-333-33-333-333-33-|
      |-----------------------|-----------------------|
      
      
      GUITAR 1 (Acoustic)
      
      |-----------------------|-----------------------|
      |-----------------------|-----------------------|
      |-----------------------|-----------------------|
      |-8---8---8--8---8---8--|-10--10--10-10---------|
      |-8---8---8--8---8---8--|-10--10--10-10---------|
      |-6---6---6--6---6---6--|-8---8---8--8----------|
      
      
      GUITAR 2 (Acoustic Palm Mute)
      
      |-----------------------|-----------------------|
      |-----------------------|-----------------------|
      |-333-333-33-333-333-33-|-555-555-55-5----------|
      |-333-333-33-333-333-33-|-555-555-55-5----------|
      |-111-111-11-111-111-11-|-333-333-33-3----------|
      |-----------------------|-----------------------|
      
      
              BRIDGE
      GUITAR 1 (Acoustic)
      
      |------------|------------|-----------------------|
      |------------|------------|-----------------------|
      |-7---7---7--|------------|-----------------------|
      |-7---7---7--|-8---8---8--|-5---5---5--5---5---5--|
      |-5---5---5--|-8---8---8--|-5---5---5--5---5---5--|
      |------------|-6---6---6--|-3---3---3--3---3---3--|
      
      
      |------------|------------|-----------------------|
      |------------|------------|-----------------------|
      |-7---7---7--|------------|-----------------------|
      |-7---7---7--|-8---8---8--|-10--10--10-10--10--10-|
      |-5---5---5--|-8---8---8--|-10--10--10-10--10--10-|
      |------------|-6---6---6--|-8---8---8--8---8---8--|
      
      
      GUITAR 2 (Acoustic)
      
      |------------------------------------------------------------|
      |------------------------------------------------------------|
      |------------------------------------------------------------|
      |-12\10-10--10\8-8--8\7-8p7-7--7\5-5--5\3--5/7-7-7--5/7-7-7--|
      |------------------------------------------------------------|
      |------------------------------------------------------------|
      
      
      |------------------------------------------------------------|
      |------------------------------------------------------------|
      |------------------------------------------------------------|
      |-12\10-10--10\8-8--8\7-8p7-7-7-8-10--8/10-10-10--8/10-10-10-|
      |------------------------------------------------------------|
      |------------------------------------------------------------|
      
      
              VERSE 2
      GUITAR 1 (Acoustic)
      
      |------------|------------|-----------------------|
      |------------|------------|-----------------------|
      |-7---7---7--|------------|-----------------------|
      |-7---7---7--|-8---8---8--|-5---5---5--5---5---5--|
      |-5---5---5--|-8---8---8--|-5---5---5--5---5---5--|
      |------------|-6---6---6--|-3---3---3--3---3---3--|
      
      
      |------------|------------|-----------------------|
      |------------|------------|-----------------------|
      |-7---7---7--|------------|-----------------------|
      |-7---7---7--|-8---8---8--|-10--10--10-10--10--10-|
      |-5---5---5--|-8---8---8--|-10--10--10-10--10--10-|
      |------------|-6---6---6--|-8---8---8--8---8---8--|
      
      
              CHORUS 2 (X4)
      GUITAR 1 (Acoustic)
      
      |-----------------------|-----------------------|
      |-----------------------|-----------------------|
      |-----------------------|-----------------------|
      |-8---8---8--8---8---8--|-10--10--10-10--10--10-|
      |-8---8---8--8---8---8--|-10--10--10-10--10--10-|
      |-6---6---6--6---6---6--|-8---8---8--8---8---8--|
      
      
      GUITAR 2 (Acoustic)
      
      |-----------------------|-----------------------|
      |-6---5------6---5------|-6---5------6---5------|
      |---------5----------5--|---------5----------5--|
      |-----------------------|-----------------------|
      |-----------------------|-----------------------|
      |-----------------------|-----------------------|
      
      
              CHORUS 3 (X2)
      GUITAR 1 (Acoustic)
      
      |-----------------------|-----------------------|
      |-----------------------|-----------------------|
      |-----------------------|-----------------------|
      |-8---8---8--8---8---8--|-10--10--10-10--10--10-|
      |-8---8---8--8---8---8--|-10--10--10-10--10--10-|
      |-6---6---6--6---6---6--|-8---8---8--8---8---8--|
      
      
      GUITAR 2 (Acoustic)
      
      |-----------------------|-----------------------|
      |-6---5------6---5------|-6---5------6---5------|
      |---------5----------5--|---------5----------5--|
      |-----------------------|-----------------------|
      |-----------------------|-----------------------|
      |-----------------------|-----------------------|
      
      
              CHORUS 4 (X5)
      GUITAR 1 (Acoustic)
      
      |-----------------------|-----------------------|
      |-----------------------|-----------------------|
      |-----------------------|-----------------------|
      |-8---8---8--8---8---8--|-10--10--10-10--10--10-|
      |-8---8---8--8---8---8--|-10--10--10-10--10--10-|
      |-6---6---6--6---6---6--|-8---8---8--8---8---8--|
      
      
      GUITAR 2 (Acoustic)
      
      |-----------------------|-----------------------|
      |-666-555----666-555----|-666-555----666-555----|
      |---------55---------55-|---------55---------55-|
      |-----------------------|-----------------------|
      |-----------------------|-----------------------|
      |-----------------------|-----------------------|
      
      
              OUTRO
      GUITAR 1 (Acoustic)
      
      |-----------------------|-----------------------|
      |-----------------------|-----------------------|
      |-----------------------|-10--9--5--------------|
      |-8---8---8--8---8---8--|-x---x--x--------------|
      |-8---8---8--8---8---8--|-8---7--3--------------|
      |-6---6---6--6---6---6--|-----------------------|
      
      
      GUITAR 2 (Acoustic)
      
      |-----------------------|-----------------------|
      |-666-555----666-555----|-6---5-----------------|
      |---------55---------55-|--------5--------------|
      |-----------------------|-----------------------|
      |-----------------------|-----------------------|
      |-----------------------|-----------------------|
      
        Composição: Jared LetoColaboração e revisão:
        • carol

        Comentários 3

        140 .
        • dinricci dinricci: Em 11/08/2013 17:42

          cade meu comentario daki excluiram? ;s
          a musica é boa... só que parece que tem uma notas diferentes
          axo q deve ser o Tom dela \o.

        • dinricci dinricci: Em 11/08/2013 12:29

          rsrsrsrs' se fosse falar de toodos os erros q tem por aki velho ;s tava ferrado rsrs'

        • gdjonas30stm gdjonas30stm: Em 18/08/2011 01:31

          Bando de anta o nome da musica é A Modern Myth e naum Modern Myth , ignorancia é A Modern Myth!

        140 cancelar

        conseguiu tocar?

        covers

        Grave um vídeo tocando Modern Myth e mande pra gente!

        Ex.: http://www.youtube.com/watch?v=0IvSvIwGdwk
        ver covers de outras músicas »
        0:00 / 0:00

        Capítulos

          1 versão de baixo exibições contribuição e correção
          3 versões de Guitar Proformatodownloadscontribuição
          play/pausefechar subir/descer velocidade
          6ª corda E5ª corda A4ª corda D3ª corda G2ª corda B1ª corda E
            acordes
            publicidade
            fechar
            ok