Cifra Club

Aprenda

Decibel

AC/DC

Tab de baixo: Principal
(intro)
   A
G|-----------------|-----------------|-----------------|-----------------|
D|-----------------|-----------------|-----------------|-----------------|
A|-----------------|-----------------|-----------------|-----------------|
E|-5-5-5-5-5-5-5-5-|-5-5-5-5-5-5-5-5-|-5-5-5-5-5-5-5-5-|-5-5-5-5-5-5-5-5-|

(verso 1)
   A           DCA               DCA       G A     DCA               DCA
G|-----------------|-----------------|-----------------|-----------------|
D|-----------------|-----------------|-----------------|-----------------|
A|-------------53--|-------------53--|-------------53--|-------------53--|
E|-5-5-5-5-5-5---5-|-5-5-5-5-5-5---5-|-5-5-3-5-5-5---5-|-5-5-5-5-5-5---5-|
   A           DCA       G A     DCA               DCA               G A
G|-----------------|-----------------|-----------------|-----------------|
D|-----------------|-----------------|-----------------|-----------------|
A|-------------53--|-------------53--|-------------53--|-----------------|
E|-5-5-5-5-5-5---5-|-5-5-3-5-5-5---5-|-5-5-5-5-5-5---5-|-5-5-5-5-5-5-3-5-|

(intervalo)
   C     D                       G C       A D                       G A
G|-----------------|-----------------|-----------------|-----------------|
D|-----------------|-----------------|-----------------|-----------------|
A|-3-----5---------|---------------3-|-------5---------|-----------------|
E|-----------------|-------------3---|-----5-----------|-------------3-5-|
   C     D                       G C       A D                       G A
G|-----------------|-----------------|-----------------|-----------------|---------|
D|-----------------|-----------------|-----------------|-----------------|---------|
A|-3-----5---------|---------------3-|-------5---------|-----------------|---------|
E|-----------------|-------------3---|-----5-----------|-----------------|---------|
                                                            
(refrão)
   A           DCA               DCA               DCA               E  A
G|-----------------|-----------------|-----------------|-----------------|
D|-----------------|-----------------|-----------------|-----------------|
A|-------------53--|-------------53--|-------------53--|-----------------|
E|-5-5-5-5-5-5---5-|-5-5-5-5-5-5---5-|-5-5-5-5-5-5---5-|-5-5-5-5-5-5-12/5|

(verso 2)
   A           DCA               DCA       G A     DCA               G A
G|-----------------|-----------------|-----------------|-----------------|
D|-----------------|-----------------|-----------------|-----------------|
A|-------------53--|-------------53--|-------------53--|-----------------|
E|-5-5-5-5-5-5---5-|-5-5-5-5-5-5---5-|-5-5-3-5-5-5---5-|-5-5-5-5-5-5-3-5-|

(intervalo)
   C     G       D               G A   C   E B     C D               G A 
G|-----------------|-----------------|-----------------|-----------------|
D|-----------------|-----------------|-----------------|-----------------|
A|-3-----------3x5-|-----------------|-3-----------3x5-|-----------------|
E|-----0x3---------|-------------3-5-|-----0x3---------|-------------3-5-|
   C     B       D               G A   C   E G     C D
G|-----------------|-----------------|-----------------|-----------------|
D|-----------------|-----------------|-----------------|-----------------|
A|-3-----2-------5-|-----------------|-3-----------3x5-|-----------------|
E|-----------------|-------------3-5-|-----0x3---------|-----------------|

G|-----------------|
D|-----------------|
A|-----------------|
E|-----------------|

(refrão)
   A            CA               DCA       G A     DCA               DCA
G|-----------------|-----------------|-----------------|-----------------|
D|-----------------|-----------------|-----------------|-----------------|
A|-----------------|-------------53--|-------------53--|-------------53--|
E|-5-5-5-5-5-5-585-|-5-5-5-5-5-5---5-|-5-5-3-5-5-5---5-|-5-5-5-5-5-5---5-|

(solo)
   A   G A     DCA               DCA       G A     DCA       G A     G A
G|-----------------|-----------------|-----------------|-----------------|
D|-----------------|-----------------|-----------------|-----------------|
A|-------------53--|-------------53--|-------------53--|-----------------|
E|-5-5-3-5-5-5---5-|-5-5-5-5-5-5---5-|-5-5-3-5-5-5---5-|-5-5-3-5-5-5-3-5-|

(Part 1)
   C     G       D               G A   C   E B     C D               G A 
G|-----------------|-----------------|-----------------|-----------------|
D|-----------------|-----------------|-----------------|-----------------|
A|-3-----------3x5-|-----------------|-3-----------3x5-|-----------------|
E|-----0x3---------|-------------3-5-|-----0x3---------|-------------3-5-|
   C     B       D               G A   C   E G     C D
G|-----------------|-----------------|-----------------|-----------------|
D|-----------------|-----------------|-----------------|-----------------|
A|-3-----2-------5-|-----------------|-3-----------3x5-|-----------------|
E|-----------------|-------------3-5-|-----0x3---------|-----------------|
               G A
G|-----------------|
D|-----------------|
A|-----------------|
E|-------------3-5-|

(Part 2)
   C     D                       G C       A D                       G A
G|-----------------|-----------------|-----------------|-----------------|
D|-----------------|-----------------|-----------------|-----------------|
A|-3-----5---------|---------------3-|-------5---------|-----------------|
E|-----------------|-------------3---|-----5-----------|-------------3-5-|
   C     D                       G C       A D                       G A
G|-----------------|-----------------|-----------------|-----------------|---------|
D|-----------------|-----------------|-----------------|-----------------|---------|
A|-3-----5---------|---------------3-|-------5---------|-----------------|---------|
E|-----------------|-------------3---|-----5-----------|-----------------|---------|

(refrão)
   A                                       G A               G A     DCA
G|-----------------|-----------------|-----------------|-----------------|
D|-----------------|-----------------|-----------------|-----------------|
A|-----------------|-----------------|-----------------|-------------53--|
E|-5-5-5-5-5-5-5-5-|-5-5-5-5-5-5-5-5-|-5-5-3-5-5-5-5-5-|-5-5-3-5-5-5---5-|
   A   G A     DCA               DCA               DCA       G A     DCA
G|-----------------|-----------------|-----------------|-----------------|
D|-----------------|-----------------|-----------------|-----------------|
A|-------------53--|-------------53--|-------------53--|-------------53--|
E|-5-5-3-5-5-5---5-|-5-5-5-5-5-5---5-|-5-5-5-5-5-5---5-|-5-5-3-5-5-5---5-|
   A   G A     DCA               DCA       G A     DCA       G A     G A
G|-----------------|-----------------|-----------------|-----------------|
D|-----------------|-----------------|-----------------|-----------------|
A|-------------53--|-------------53--|-------------53--|-----------------|
E|-5-5-3-5-5-5---5-|-5-5-5-5-5-5---5-|-5-5-3-5-5-5---5-|-5-5-3-5-5-5-3-5-|

(outro)
   C     G       D               G A   C   E B     C D               G A 
G|-----------------|-----------------|-----------------|-----------------|
D|-----------------|-----------------|-----------------|-----------------|
A|-3-----------3x5-|-----------------|-3-----------3x5-|-----------------|
E|-----0x3---------|-------------3-5-|-----0x3---------|-------------3-5-|
   C     B       D               G A   C   E G     C D
G|-----------------|-----------------|-----------------|-----------------|
D|-----------------|-----------------|-----------------|-----------------|
A|-3-----2-------5-|-----------------|-3-----------3x5-|-----------------|
E|-----------------|-------------3-5-|-----0x3---------|-----------------|
Composição de Angus Young / Malcolm Young
Colaboração e revisão:
  • Paulo Ricardo
378 exibições

0 comentários

Mostrar mais comentários

Conseguiu tocar?

2 Tocaram 0 Ainda não

Grave um vídeo tocando Decibel e mande pra gente!

00:00 / 00:00
outros vídeos desta música
repetir qualidade Automático
Outros vídeos desta música
00:00 / 00:00
Automático
OK