Cifra Club

It's a Long Way To The Top (If You Wanna Rock N' Roll)

AC/DC

Cifra: Principal (violão e guitarra)
Tom: D
Intro Base: A5

Guitarra Solo - Passagem:E|-----------------------------------------------------|
B|-----------------------------------------------------|
G|-----------------------------------------------------|
D|-----5~------2---------------------------------------|
A|-5/7-----7\5-0---------------------------------------|
E|-----------------------------------------------------|

Primeira Estrofe:
 A5
Ridin' down the highway
Goin' to a show
Stop in all the byways
Playin' rock 'n' roll

Segunda Estrofe:
Riff 1:E|-5----5----------------------------------------------|
B|-5----5----------------------------------------------|
G|-----------------------------------------------------|
D|-----------------------------------------------------|
A|-----------------------------------------------------|
E|-----------------------------------------------------|

Gettin' robbed
Gettin' stoned
Gettin' beat up

Broken boned
Gettin' had
Gettin' took
I tell you folks
It's harder than it looks

Primeiro Refrão:

        A5              G5
It's a long way to the top
        D              A5
if you wanna rock 'n' roll
        A5              G5
It's a long way to the top
        D              A5
if you wanna rock 'n' roll

Ponte:

If you think it's easy doin' one night stands
D
  Try playin' in a rock roll band
        G5              D
It's a long way to the top
                       A5
if you wanna rock 'n' roll

Solo: A5
      G5  D  A5 (4x)
E|-----5~----------------------------------------------|
B|-----------------------------------------------------|
G|-5/6-------------------------------------------------|
D|-----------------------------------------------------|
A|-----------------------------------------------------|
E|-----------------------------------------------------|

E|-----------------------------------------------------|
B|-13b15~---12b14--10--12------10~------10~\-----------|
G|-------------------------11--------11----------------|
D|-----------------------------------------------------|
A|-----------------------------------------------------|
E|-----------------------------------------------------|

E|-----------------------------12-15-12----------------|
B|-15b17~r15p12-15b17-15b17~------------15-14-12-------|
G|-----------------------------------------------14~---|
D|-----------------------------------------------------|
A|-----------------------------------------------------|
E|-----------------------------------------------------|

E|-----------------------------------------------------|
B|-12b14--12b14--10~---12b14-12b14-10------------------|
G|-----------------------------------------------------|
D|-----------------------------------------------------|
A|-----------------------------------------------------|
E|-----------------------------------------------------|

E|----------15---------------------------17----15b17~--|
B|-15b17-------b17--15b17r15r12-15b17~------17---------|
G|-----------------------------------------------------|
D|-----------------------------------------------------|
A|-----------------------------------------------------|
E|-----------------------------------------------------|

E|-----------------------------------------------------|
B|-----------------------------------------------------|
G|-----------------------------------------------------|
D|-----------------------------------------------------|
A|-16p14\-12~------------------------------------------|
E|-----------------------------------------------------|

Terceira Estrofe:
A5
   Hotel motel
Make you wanna cry
Lady do the hard sell
Know the reason why

Quarta Estrofe:
Riff 1:E|-5----5----------------------------------------------|
B|-5----5----------------------------------------------|
G|-----------------------------------------------------|
D|-----------------------------------------------------|
A|-----------------------------------------------------|
E|-----------------------------------------------------|

Gettin' old
Gettin' grey
Gettin' ripped off

Under-paid
Gettin' sold
Second hand
That's how it goes
Playin' in a band

Segundo Refrão:

        A5              G5
It's a long way to the top
        D              A5
if you wanna rock 'n' roll
        A5              G5
It's a long way to the top
        D              A5
if you wanna rock 'n' roll

Ponte:
                                    
If you wanna be a star of stage and screen
D
  Look out it's rough and mean

Final:

        G5              D
It's a long way to the top
                       A5
if you wanna rock 'n' roll
        G5              D
It's a long way to the top
                       A5
if you wanna rock 'n' roll
        G5              D
It's a long way to the top
                       A5
if you wanna rock 'n' roll
        G5              D
It's a long way to the top
                       A5
if you wanna rock 'n' roll

Well it's a long way
It's a long way 
(you should've told me)
It's a long way 
(such a long way)
exibições 114.392
Acordes para:
    Composição: Bon Scott / Malcolm Young Colaboração e revisão:
    • Vinícius Dias

    0 comentários

    mostrar mais comentários

    Conseguiu tocar?

    12 tocaram 0 ainda não

    Grave um vídeo tocando It's a Long Way To The Top (If You Wanna Rock N' Roll) e mande pra gente!

    00:00 / 00:00
    outros vídeos desta música
    repetir qualidade Automático
    Outros vídeos desta música
    00:00 / 00:00
    Automático
    Capítulos
    • Tocando a música
    • Dicas Iniciais / Equipamentos
    • Acordes da música
    • Tocando Introdução e Primeira Estrofe
    • Ensinando Introdução (base)
    • Ensinando Introdução (solo)
    • Dicas Segundo Estrofe
    • Tocando Segunda Estrofe
    • Ensinando Riff 1
    • Dicas Primeiro Refrão
    • Tocando Primeiro Refrão
    • Ensinando Primeiro Refrão
    • DIcas da Ponte
    • Tocando Ponte
    • Ensinando Ponte
    • Dicas Solo
    • Tocando Solo
    • Ensinando Base Solo
    • Solo - Parte 1 de 5
    • Solo - Parte 2 de 5
    • Solo - Parte 3 de 5
    • Solo - Parte 4 de 5
    • Solo - Parte 5 de 5
    • Encerramento
    • Ficha Técnica
    OK