Cifra Club

Don't Wanna Fight

Alabama Shakes

Tab de baixo: Principal
[Introdução]

Parte 1 
G|----------------------------------------------|
D|----------------------------------12-12-------|
A|-7---7-9---------3/7---7-9-----14-------14-12-|
E|---7-----7-7-5-3-----7-----7-7----------------|

G|----------------------------------------------|
D|----------------------------------------------|
A|----------------------------------------------|
E|-14-13-12-------------------------------------|


[Primeira parte]

My life, your life...

Parte 1 ( 4x )
G|-7-9--------7-9--------7-9--------7-9---------|
D|-----9p7-9------9p7-9------9p7-9------9p7-9---|
A|----------------------------------------------|
E|----------------------------------------------|


[Refrão]

I don't wanna fight no more...

Parte 1
G|----------------------------------------------|
D|--------------9-7---------------------12-12---|
A|-7---7-9--------------7---7-9------14---------|
E|---7-----7-7------2-1---7-----7-7-------------|

G|----------------------------------------------|
D|----------------------------------------------|
A|-14-12----------------------------------------|
E|-------14-------------------------------------|


[Segunda parte]

Take from my hand...

Parte 1 ( 4x )
G|-7-9--------7-9--------7-9--------7-9---------|
D|-----9p7-9------9p7-9------9p7-9------9p7-9---|
A|----------------------------------------------|
E|----------------------------------------------|


[Refrão 2]

I don't wanna fight no more...

Parte 1
G|----------------------------------------------|
D|---------------------------------------12-12--|
A|-7---7-9-------------2/7---7-9-9----14--------|
E|---7-----7-7-x-5-3-2-----7-------7-7----------|

G|----------------------------------------------|
D|----------------------------------------------|
A|-14-12-----7----------------------------------|
E|-------14-------------------------------------|


[Solo de guitarra]

Parte 1
G|----------------------------------------------|
D|---------------------------9-7---9-7----------|
A|-7---7-9-9------2/7---7--9-----9-----9--------|
E|---7-------7--7-----7-------------------7-7---|

G|----------------------------------------------|
D|----12-11-9-----------------------------------|
A|-14---------9---------------------------------|
E|----------------------------------------------|


[Refrão 3]

I don't wanna fight no more...

Parte 1
G|---------------7-7---------------------7-7----|
D|-------------9-----9-7-------------9-7-----9-7|
A|-7---7-9---------------7---7-9----------------|
E|---7-----7-7-------------7-----7-7------------|

G|----------------------------------------------|
D|----------------7-11--12-11-9-----------------|
A|-7---7-9------9---------------7---7--9-9------|
E|---7-----7-7--------------------7--------7----|

G|----------------------------------------------|
D|----------------------------------------------|
A|---------7---7-9-9----------------------------|
E|-7\3-2/----7-------7--------------------------|
exibições 549
Composição: Brittany Howard Colaboração e revisão:
  • Reginaldo Costa
  • Gustavo Cappelleti

0 comentários

mostrar mais comentários

Conseguiu tocar?

0 tocaram 0 ainda não

Grave um vídeo tocando Don't Wanna Fight e mande pra gente!

00:00 / 00:00
outros vídeos desta música
repetir qualidade Automático
Outros vídeos desta música
00:00 / 00:00
Automático
Capítulos
  • Tocando a música
  • Apresentação / Equipamentos
  • Afinação
  • Dicas primeira parte da música
  • TAB - Introdução
  • TAB - Primeira Parte
  • TAB - Refrão
  • Dicas segunda parte da música
  • TAB - Segundo refrão
  • TAB - Solo de guitarra
  • TAB - Terceiro refrão
  • Encerramento
OK