Cifra Club

Don't Wanna Fight

Alabama Shakes

Cifra: Tablatura (violão e guitarra)
tom: D
  Intro:

Guitarra 1:

  Riff 1:
 
  P.M.
E|-----------------------------------------
B|-----------------------------------------
G|-----------------------------------------
D|-----------------------------------------  (7x)
A|-----------------------------------------
E|---5--5---5---5---5---5--7---7-----------

Guitarra 2:

  Riff 1:

  P.M.
E|-----------------------------------------        |
B|-----------------------------------------        |
G|-----------------------------------------        |
D|---4--4---4---4---4---4------------------ (2X)   | 
A|-------------------------7---7---x--x----        |
E|-----------------------------------------        |
                                                   | (4x)
  P.M.                                             | 
E|-----------------------------------------        |
B|-----------------------------------------        |
G|-----------------------------------------        |
D|----------------------------------------- (2x)   |
A|---5--5---5---5---5---5------------------        |
E|-------------------------7---7---x--x----        |

Guitarra 1:

   Riff 2:
 
E|------------------------7------7---7-----
B|------------------------7------7---8-----
G|------------------------7------7---7-----
D|---------------------9------9------9-----
A|-----------------------------------------
E|---5--5---5---5--------------------------

E|---12---14---14--15--14---7--------------
B|---12---15---15--15--14---7--------------
G|---12---16---16------14---7--------------
D|--------------------------9--------------
A|--------------------------x--------------
E|--------------------------7--------------

E|---7------7------9---10---7--------------
B|---7------8------8---8----7--------------
G|---7------7------7---7----7--------------
D|---9------9------9---9----9--------------
A|---9----------------------9--------------
E|---7----------------------7--------------


  Verso:

Guitarra 1:

   Riff 1

Guitarra 2:

   Riff 2:

E|------------7------------7----------------        |
B|---8--7--x--8---8--7--x--8----------------        |
G|---7--7--x--7---7--7--x--7----------------        |
D|------------9------------9----------------        |
A|------------------------------------------        |
E|------------------------------------------        |
                                                    | (5x)
E|---x--------7---x--------7----------------        |
B|---7--7--x--7---7--x--x--7----------------        |
G|---9--7--x--7---9--7--x--7----------------        |
D|------------9------------9----------------        |
A|------------------------------------------        |
E|------------------------------------------        |

  Na 5ª vez:

E|---x-------------7------------------------
B|---x-----x-------7------------------------
G|---7h9---7--------------------------------
D|-------------9----------------------------
A|------------------------------------------
E|------------------------------------------

  Refrão:

Guitarra 1:

   Riff 2

Guitarra 2:

   Riff 1 (2x)

  Verso 2:

Guitarra 1:

   Riff 1 (7x)

   Riff 3:

E|-----------------------------10---7------
B|-----------------------------10---8------
G|----------------------------------7------
D|----------------------------------9------
A|----------------------------------7------
E|---5--5---5---5---5---5--7---------------

E|---7---7----------7------7---7-----------
B|---8---7----------8------8---7-----------
G|---7---7------7---7------7---7-----------
D|---9---9------9---9------9---9-----------
A|---7---9------9---7------7---9-----------
E|-------7------7--------------7-----------

Guitarra 2:

   Riff 2 (5x)

  Refrão 2:

Guitarra 1:
  
   Riff 2

Guitarra 2:

   Riff 1 (2x)

  Solo:

Guitarra 1:
   
   Riff 1 (4x)

E|---7------7---7----------7------7---7------
B|---8------8---7----------8------8---7------
G|---7------7---7------7---7------7---7------
D|---9------9---9------9---9------9---9------
A|---7------7---9------9---7------7---9------
E|--------------7------7--------------7------

Guitarra 2:

  P.M.
E|-----------------------------------------       
B|-----------------------------------------        
G|-----------------------------------------        
D|---4--4---4---4---4---4------------------ (2X)   
A|-------------------------7---7---x--x----        
E|-----------------------------------------        
                                                  
  P.M.                                             
E|-----------------------------------------        
B|-----------------------------------------        
G|-----------------------------------------       
D|-----------------------------------------  
A|---5--5---5---5---5---5------------------      
E|-------------------------7---7---x--x----      

E|------------------------------------------------------------
B|-----------------------------15--17--17b1917------17b1917---
G|----------------------14h16---------------------------------
D|---5--5---5---5---5-----------------------------------------
A|------------------------------------------------------------
E|------------------------------------------------------------

E|------------------------------------------------------------
B|----------15--17--------------------------------------------
G|---14h16----------14b16b14---14b16b14---14------------------
D|------------------------------------------------------------
A|------------------------------------------------------------
E|------------------------------------------------------------


  Refrão final:

Guitarra 1:

   Riff 2

Guitarra 2:

   Riff 1
Composição de Brittany Howard
Colaboração e revisão:
  • Victor Moreira
815 exibições
  • Simplificar cifra
    • ½ Tom
    • A
    • Bb
    • B
    • C
    • Db
    • D
    • Eb
    • E
    • F
    • F#
    • G
    • Ab
  • Adicionar à lista

    0 comentários

    Ver todos os comentários

    Conseguiu tocar?

    1 Tocaram 0 Ainda não

    Grave um vídeo tocando Don't Wanna Fight e nos envie!

    00:00 / 00:00
    Outros vídeos desta música
    Repetir Qualidade Automático
    Outros vídeos desta música
    00:00 / 00:00
    Automático
    Capítulos
    • Tocando a música
    • Apresentação / Equipamentos
    • Afinação
    • Dicas música e efeitos
    • Dicas introdução
    • Acordes introdução
    • Tocando introdução
    • Introdução 1 - Guitarra 1
    • Introdução 2 - Guitarra 1
    • Introdução 1 - Guitarra 2
    • Introdução 2 - Guitarra 2
    • Dicas primeira parte
    • Tocando primeira parte
    • Primeira Parte - Guitarra 1
    • Primeira Parte - Guitarra 2
    • Dicas primeiro refrão
    • Tocando primeiro refrão
    • Primeiro Refrão - Guitarra 1
    • Primeiro Refrão - Guitarra 2
    • Dicas Segunda Parte
    • Acordes Segunda Parte
    • Tocando Segunda Parte
    • Segunda Parte - Guitarra 1
    • Segunda Parte - Guitarra 2
    • Dicas Segundo Refrão
    • Tocando Segundo Refrão e Interlúdio
    • Interlúdio - Guitarra 1
    • Interlúdio - Guitarra 2
    • Dicas Solo
    • Tocando Solo
    • Solo - Guitarra 1
    • Solo - Guitarra 2
    • Encerramento

    Cifra Club Pro

    Aproveite o Cifra Club com benefícios exclusivos e sem anúncios
    Cifra Club Pro
    Aproveite o Cifra Club com benefícios exclusivos e sem anúncios
    OK