Cifra Club

Aprenda

Rocker

Angeles Del Infierno

Cifra: Principal (violão e guitarra)
tom: G
                                                        Intro

Tienes que saber muy bien la canción y oírla mucho es muy facil capta el ritmo

E|--------------------------------------------------------------------------------------|
B|--------------------------------------------------------------------------------------|
G|-------------------------------------------------------------------------------------|
D|-------------------------------------------------------------------------------------|
A|--------0-0-3-0------0-0-5-0---0-0-3-0-------------------------------------------|
E|-3/5---------------------------------------------------------------------------------|

E|---------------------------------------------------------------------------------------|
B|--------------------------------------------------------------------------------------|
G|----------------------------------------5--5-----------------------------------------|
D|----------------------------------------5--5-----------------------------------------|
A|--------0-0-3-0------0-0-5-0---0-0-3--3-------------------------------------------|
E|-3/5----------------------------------------------------------------------------------|

Esto repitelo 4 veces y lo tambie lo hace en las estrofas

Riff: 1
E|--------------------------------------------------------------------------------------|
B|-------------------------------------------------------------------------------------|
G|-------------------------------------------------------------------------------------|
D|-------------------------------------------------------------------------------------|
A|--------0-0-3-0------0-0-5-0---0-0-3-0-------------------------------------------|
E|-3/5---------------------------------------------------------------------------------|

E|--------------------------------------------------------------------------------------|
B|--------------------------------------------------------------------------------------|
G|----------------------------------------5--5-----------------------------------------|
D|----------------------------------------5--5-----------------------------------------|
A|--------0-0-3-0------0-0-5-0---0-0-3--3------------------------------------------|
E|-3/5---------------------------------------------------------------------------------|

                                                  Riff:1
                          Sombras negras sobre la cuidad
                         En tu cama aburrido estas
                         En tu carta suena una canción
                         Y tu cuerpo comienza ha temblar

                                                  Pre coro

                           Es la magia del rock´n´roll
                          Que penetra en tu interior
                          Usando tu imaginación

      riff  :  del  pre coro

        es la magia  del rock´n´roll
E|---------------------------------------------------------------------------------------|
B|--------------------------------------------------------------------------------------|
G|---5-------------7-----------------------------5-------------------------------------|
D|---5-------------7-----------------------------5-------------------------------------|
A|---3-------------5--------------3---5---3-----3-------------------------------------|
E|--------------------------3/5---------------------------------------------------------|

      que penetra en tu interior         usando tu imaginacion
E|---------------------------------------------------------------------------------------|
B|---------------------------------------------------------------------------------------|
G|---5--------------7--------------9----9---9--------9---------------------------------|
D|---5--------------7--------------9----9---9--------9---------------------------------|
A|---3--------------5--------------7----7---7--------7---------------------------------|
E|----------------------------------0----0---0--------0---------------------------------|

                                                           Coro    lo repites dos veces
riff. coro

            Rooocker                            Rooocker

E|----------------------------------------------------------------------------------------|
B|----------------------------------------------------------------------------------------|
G|-----5--------7--------------------5------7-----7-5-----------------------------------|
D|-----5--------7--------7-7-7------5------7-----7-5--7--------------------------------|
A|-----3--------5--------7-7-7------3------5-----5-3--7--------------------------------|
E|------------------------5-5-5-------------------------5--------------------------------|
Compositor não encontrado.
    • ½ Tom
    • A
    • Bb
    • B
    • C
    • Db
    • D
    • Eb
    • E
    • F
    • F#
    • G
    • Ab
  • Adicionar à lista

    0 comentários

    Ver todos os comentários

    Conseguiu tocar?

    0 Tocaram 0 Ainda não

    Grave um vídeo tocando Rocker e nos envie!

    00:00 / 00:00
    Outros vídeos desta música
    Repetir Qualidade Automático
    Outros vídeos desta música
    00:00 / 00:00
    Automático

    Cifra Club Pro

    Aproveite o Cifra Club com benefícios exclusivos e sem anúncios
    Cifra Club Pro
    Aproveite o Cifra Club com benefícios exclusivos e sem anúncios
    OK