Cifra Club

Inspiração de Amor

Anjos de Resgate

Cifra: Principal (violão e guitarra)
Selo Cifra Club: esta cifra foi revisada para atender aos critérios oficiais da nossa Equipe de Qualidade.
tom: E
[Intro]  C#m  A  E  B
         C#m  A  F#m  E  B

[Solo]

E|-12-11------------------------------------|
B|-------12-12-12/14------10/12/10----------|
G|--------------------13------------9-11-13-|
D|------------------------------------------|
A|------------------------------------------|
E|------------------------------------------|

E|-----------------------11-11-12-----|
B|--------------------12--------------|
G|------9-~11--11/13--------------13--|
D|-9-11-------------------------------|
A|------------------------------------|
E|------------------------------------|

E|----------------------------------|
B|-10/12/10-------------------------|
G|----------9-11-14-13--11/1--------|
D|----------------------------------|
A|----------------------------------|
E|----------------------------------|

E
Tantos corações feridos na multidão
A
Sentem falta de um abrigo vivem sem chão
C#m                      B
Não encontram um abraço ou alguém
                    A
Que lhes estenda a mão

E
Um se congelou no frio da ilusão
A
Outro se sentiu traído pelo irmão
C#m
Mas quem já foi vitimado
B                         A
Hoje pode se tornar vencedor

        C#m        A
Sinta o ar que vem enche o peito
   E       B
E faz renovar
       C#m
Inspiração de amor
     A              F#m E  B
Que vem do céu para restaurar

             E                  A
Deus quer te abraçar, não se esconda mais
C#m
Seja aquela criança Que
B                            A
Deixa tudo para correr ao encontro do pai

E
Tantos corações perdidos na solidão
A
Vagam por aí vazios sem direção
C#m
Não encontram um caminho
B                              A
Que os livre dessa grande aflição

E
Um amarga o abandono não teve pai
A
Outro viu ser destruído todo seu lar
C#m
Mesmo que seja culpado
B                         A
Hoje pode encontrar o perdão

        C#m        A
Sinta o ar que vem enche o peito
   E       B
E faz renovar
       C#m
Manda embora a dor
     A              F#m E  B
E traz a cura para restaurar

             E                  A
Deus quer te abraçar, não se esconda mais
C#m
Seja aquela criança Que
B                            A
Deixa tudo para correr ao encontro do pai

C#m             B                  E (E/G#) A
E quem já sentiu esse amor deve se entregar
C#m          B        E/G#      A
E transparece toda a glória do pai

[Solo]  E  B  C#m  A
        E  B  C#m B A

             E                  A
Deus quer te abraçar, não se esconda mais
C#m
Seja aquela criança Que
B                            A
Deixa tudo para correr ao encontro do pai
Outros vídeos desta música
32.529 exibições
    • ½ Tom
    • A
    • Bb
    • B
    • C
    • Db
    • D
    • Eb
    • E
    • F
    • F#
    • G
    • Ab
  • Adicionar à lista

Afinação da cifra

Afinador online

    0 comentários

    Ver todos os comentários

    Entre para o Cifra Club PRO

    Tenha acesso a benefícios exclusivos no App e no Site

    • Chega de anúncios

    • Mais recursos no app do Afinador

    • Atendimento Prioritário

    • Aumente seu limite de lista

    • Ajude a produzir mais conteúdo

    Cifra Club Pro

    Aproveite o Cifra Club com benefícios exclusivos e sem anúncios
    Cifra Club Pro
    Aproveite o Cifra Club com benefícios exclusivos e sem anúncios
    OK