Cifra Club

I Am The Highway

Audioslave

Cifra: Principal
exibições 331.700
Tom: C
Intro 2x: C  G  Dm  Am

E|-------------------------------------------|
B|-----0---1---1~---1~-----------------------|
G|-----2---2---2~---2~-----------------------|  (4x)
D|-----2---2---2~---2~-----------------------|
A|--0~------------0--------------------------|
E|-------------------------------------------| 

Primeira Parte:
 F           C      G       Am
Pearls and swine bereft of me
 F         C       G        Am
Long and weary my road has been
       F           C Am
I was lost in the cities
  G           C Am
Alone in the hills
    F         C Am
No sorrow or pity
     G         C  Am
For leaving I feel

Refrão:
C       G                 Dm
  I am not your rolling wheels
          Am
I am the highway

Ponte:
E|-------------------------------------------|
B|-------1-----------------------------------|
G|-2-----0-----------------------------------|
D|---2---2-----------------------------------|
A|-----0-3-----------------------------------|
E|-------------------------------------------|

C       G               Dm
  I am not your carpet ride
           E
I am the sky

Segunda Parte:
  F          C           G        Am
Friends and liars don't wait for me
      F        C       G    Am
Cause i'll get on all by myself
       F           C Am
I put millions of miles
   G      C Am
Under my heels
      F         C Am
And still too close
    G     C Am
To you I feel

Refrão:
C       G                 Dm
  I am not your rolling wheels
          Am
I am the highway

C       G               Dm
  I am not your carpet ride
           Am
I am the sky

C       G                Dm
  I am not your blowing wind
          Am
I am the lightning

C       G               Dm
  I am not your autumn moon
          E        E
I am the night... night...

Solo:
        F              C                G              Am
E|-------------------------------|---------------------------------------|
B|----------------5-8-5----------|---------------------------------------|
G|---5---5----5-7-------7--5-----|---5----5---5--7--5-4------------------|
D|-7---7----7----------------7-5-|-7----7---7------------5-7-------5-7---|
A|-------------------------------|----------------------------5h7--------|
E|-------------------------------|---------------------------------------|
        F              C                G              Am
E|-------------------------------|---------------------------------------|
B|----------------5-6-5----------|---------------------------------------|
G|---5----5---5-7-------7--5-----|---5----5---5-7---12-8---8--12--8---8--|
D|-7----7---7----------------7-5-|-7----7---7------------7----------7----|
A|-------------------------------|---------------------------------------|
E|-------------------------------|---------------------------------------|
        F                C       Am     G                C        Am
E|-------8-----------------------|-------8----------------------------8--|
B|-10-10---10-10-8--5-8-8-5------|-10-10---10-10-8--5-8-8-10-10~~--10----|
G|--------------------------7--5-|---------------------------------------|
D|-------------------------------|---------------------------------------|
A|-------------------------------|---------------------------------------|
E|-------------------------------|---------------------------------------|
        F                    C                        G                 Am
E|-12-12-10-10-8-8-7-7-10-10-8-8-7-7-------------------7-7---------------|
B|-----------------------------------10-10-8-8-----8-8-----10~~----------|
G|---------------------------------------------9-9-----------------------|
D|-----------------------------------------------------------------------|
A|-----------------------------------------------------------------------|
E|-----------------------------------------------------------------------|

Refrão:
C       G                 Dm
  I am not your rolling wheels
          Am
I am the highway

C       G               Dm
  I am not your carpet ride
           Am
I am the sky

C       G                Dm
  I am not your blowing wind
          Am
I am the lightning

C       G               Dm
  I am not your autumn moon
          E        E
I am the night... night...
Acordes para:

    0 comentários

      mostrar mais comentários

      Conseguiu tocar?

      39tocaram0ainda não

      Grave um vídeo tocando I Am The Highway e mande pra gente!

      00:00 / 00:00
      outros vídeos desta música
      repetirqualidadeautomática
      Outro vídeos desta música
        00:00 / 00:00
        automática
        OK