Cifra Club

Stay Together For The Kids

blink-182

Cifra: Principal (violão e guitarra)
Selo Cifra Club: esta cifra foi revisada para atender aos critérios oficiais da nossa Equipe de Qualidade.
tom: G
[Intro - Riff 1]

[Tab - Riff 1 - 2x]

E|-------------------------------------|
B|-------------------------------------|
G|-------------------------------------|
D|---0---7-0---4-0-----0---7-0---4-0---|
A|-5---5-----5-------4---4-----4-------|
E|-------------------------------------|

E|-------------------------------------|
B|-------------------------------------|
G|-------------------------------------|
D|---0---4-0---5-0---2---4-5-4-2-0-----|
A|-2---2-----2-----0---0---------------|
E|-------------------------------------|

[Primeira Parte]

[Tab - Riff 2 - 2x]

E|-------------------------------------|
B|-------------------------------------|
G|-------------------------------------|
D|------7-----7------7------7----------|
A|--5-5---5-5----5-5----5-5------------|
E|-------------------------------------|

E|-------------------------------------|
B|-------------------------------------|
G|-------------------------------------|
D|------7-------7------7-----7---------|
A|-------------------------------------|
E|-7-7----7-7----7-7----7-7------------|

E|-------------------------------------|
B|-------------------------------------|
G|------7------7------7------7---------|
D|-------------------------------------|
A|-0-0----0-0----0-0----0-0------------|
E|-------------------------------------|

E|-------------------------------------|
B|-------------------------------------|
G|------9------9------6------6---------|
D|-------------------------------------|
A|-0-0----0-0----0-0----0-0------------|
E|-------------------------------------|

It's hard to wake up
When the shades have been pulled shut
This house is haunted
It's so pathetic
It makes no sense at all
I'm ripe with things to say
The words rot and fall away
If a stupid poem could fix this home
                   G
I'd read it every day

[Refrão]

[Tab - Refrão - 4x]

  G
E|-------------------------------------|
B|-------------------------------------|
G|-------------------------------------|
D|5-5-5-5-5-5-5-5-5-5-5-5-5-5-5-5------|
A|5-5-5-5-5-5-5-5-5-5-5-5-5-5-5-5------|
E|3-3-3-3-3-3-3-3-3-3-3-3-3-3-3-3------|

  G/F#                       E7 G/F#
E|-------------------------------------|
B|-------------------------------------|
G|-------------------------------------|
D|4-4-4-4-4-4-4-4-4-4-4-4-4-4-4-4------|
A|5-5-5-5-5-5-5-5-5-5-5-5-5-5-5-5------|
E|2-2-2-2-2-2-2-2-2-2-2-2-2-2-0-2------|

                    G/F#
So here's your holiday
         E7  G/F#    G
Hope you,         enjoy it this time
                  G/F#
You gave it all away
       E7  G/F#  G
It was          mine
                         G/F#
So when you're dead and gone
         E7  G/F#   G
Will you         remember this night
                  G/F#
Twenty years now lost
          D
It's not right

[Riff 1 - 2x]

[Tab - Riff 1 - 2x]

E|-------------------------------------|
B|-------------------------------------|
G|-------------------------------------|
D|---0---7-0---4-0-----0---7-0---4-0---|
A|-5---5-----5-------4---4-----4-------|
E|-------------------------------------|

E|-------------------------------------|
B|-------------------------------------|
G|-------------------------------------|
D|---0---4-0---5-0---2---4-5-4-2-0-----|
A|-2---2-----2-----0---0---------------|
E|-------------------------------------|

[Segunda Parte]

[Tab - Riff 2 - 2x]

[Tab - Riff 2 - 2x]

E|-------------------------------------|
B|-------------------------------------|
G|-------------------------------------|
D|------7-----7------7------7----------|
A|--5-5---5-5----5-5----5-5------------|
E|-------------------------------------|

E|-------------------------------------|
B|-------------------------------------|
G|-------------------------------------|
D|------7-------7------7-----7---------|
A|-------------------------------------|
E|-7-7----7-7----7-7----7-7------------|

E|-------------------------------------|
B|-------------------------------------|
G|------7------7------7------7---------|
D|-------------------------------------|
A|-0-0----0-0----0-0----0-0------------|
E|-------------------------------------|

E|-------------------------------------|
B|-------------------------------------|
G|------9------9------6------6---------|
D|-------------------------------------|
A|-0-0----0-0----0-0----0-0------------|
E|-------------------------------------|

The anger hurts my ears
Been running strong for seven years
Rather than fix the ploblems
They never 'solve them
It makes no sense at all
I see them every day
We get along so why can't they?
If this is what he wants, and this is what
She wants
Then why's there so much pain?

[Refrão]

[Tab - Refrão - 4x]

  G
E|-------------------------------------|
B|-------------------------------------|
G|-------------------------------------|
D|5-5-5-5-5-5-5-5-5-5-5-5-5-5-5-5------|
A|5-5-5-5-5-5-5-5-5-5-5-5-5-5-5-5------|
E|3-3-3-3-3-3-3-3-3-3-3-3-3-3-3-3------|

  G/F#                       E7 G/F#
E|-------------------------------------|
B|-------------------------------------|
G|-------------------------------------|
D|4-4-4-4-4-4-4-4-4-4-4-4-4-4-4-4------|
A|5-5-5-5-5-5-5-5-5-5-5-5-5-5-5-5------|
E|2-2-2-2-2-2-2-2-2-2-2-2-2-2-0-2------|

G                     G/F#
  So here's your holiday
         E7  G/F#    G
Hope you,         enjoy it this time
                  G/F#
You gave it all away
       E7  G/F#  G
It was          mine
                         G/F#
So when you're dead and gone
         E7  G/F#   G
Will you         remember this night
                  G/F#
Twenty years now lost
          D
It's not right

( G  A  D  G  A  D )
( G  A  D  G  A )
( G  G/F#  E7  G/F# )
( G  G/F#  E7  G/F# )

[Refrão Final]

G                     G/F#
  So here's your holiday
         E7  G/F#    G
Hope you,         enjoy it this time
                  G/F#
You gave it all away
       E7  G/F#  G
It was          mine
                         G/F#
So when you're dead and gone
         E7  G/F#   G
Will you         remember this night
                  G/F#
Twenty years now lost
         E7  G/F#  G
It's not          right
          G/F#
It's not right
         E7  G/F#  G
It's not          right
          G/F#
It's not right

[Final] G  G/F#  E7  G/F#  G
        G  G/F#  E7  G/F#  G
Outros vídeos desta música
    340.817 exibições
      • ½ Tom
      • A
      • Bb
      • B
      • C
      • Db
      • D
      • Eb
      • E
      • F
      • F#
      • G
      • Ab
    • Adicionar à lista

    Afinação da cifra

    Afinador online

      0 comentários

      Ver todos os comentários

      Entre para o Cifra Club PRO

      Tenha acesso a benefícios exclusivos no App e no Site

      • Chega de anúncios

      • Badges exclusivas

      • Mais recursos no app do Afinador

      • Atendimento Prioritário

      • Aumente seu limite de lista

      • Ajude a produzir mais conteúdo

      Cifra Club Pro

      Aproveite o Cifra Club com benefícios exclusivos e sem anúncios
      Cifra Club Pro
      Aproveite o Cifra Club com benefícios exclusivos e sem anúncios
      OK