Cifra Club

Stay Together For The Kids

blink-182

Cifra: Principal
exibições 305.652
Tom: D
Intro: (Riff 1)
Riff 1:
E|-----------------|-----------------|-------------------|-----------------|
B|-----------------|-----------------|-------------------|-----------------|
G|-----------------|-----------------|-------------------|-----------------|
D|---0---7-0---4-0-|---0---7-0---4-0-|---0---4-0---5-0---|-2---2-4-5-4-2-0-| 2X
A|-5---5-----5-----|-4---4-----4-----|-2---2-----2-----0-|---0-------------|
E|-----------------|-----------------|-------------------|-----------------|

Riff 2:
E|--------------------------------|------------------------------|
B|--------------------------------|------------------------------|
G|--------------------------------|------------------------------|
D|------7-----7------7------7-----|-----7-------7------7-----7---|
A|--5-5---5-5----5-5----5-5-------|------------------------------|
E|--------------------------------|--7-7----7-7----7-7----7-7----|

E|--------------------------------|------------------------------|
B|--------------------------------|------------------------------|
G|--------------------------------|------9------9------7------7--|
D|------7------7------7------7----|------------------------------|
A|--0-0---0-0----0-0----0-0-------|--0-0---0-0----0-0----0-0-----|
E|--------------------------------|------------------------------|

Riff 3:
E|--------------------------------|------------------------------|
B|--------------------------------|------------------------------|
G|--------------------------------|------------------------------|
D|------7---7---7------7------7---|-----7-------7------7-----7---|
A|--5-5---5--5---5--5-5---5-5-----|------------------------------|
E|--------------------------------|--7-7----7-7----7-7----7-7----|

E|--------------------------------|------------------------------|
B|--------------------------------|------------------------------|
G|--------------------------------|------9------9------7------7--|
D|------7------7------7------7----|------------------------------|
A|--0-0---0-0----0-0----0-0-------|--0-0---0-0----0-0----0-0-----|
E|--------------------------------|------------------------------|

(Riff 2)
 It`s hard to wake up
 When the shades have been pulled shut
 This house is haunted
 It`s so pathetic
 It makes no sense at all.
 Riff 3:
 I`m ripe with things to say
 The words rot and fall away.
 If a stupid poem could fix this home
 I'd read it every day.
  (refrão)                                    G                               G/F#                       E G/F#
         G                    G/F#   e|--------------------------------|--------------------------------|
So here`s your holiday              B|--------------------------------|--------------------------------|
         E  G/F#       G             G|-------------------------------|--------------------------------|
Hope you, enjoy it this time        D|5-5-5-5-5-5-5-5-5-5-5-5-5-5-5-5-|4-4-4-4-4-4-4-4-4-4-4-4-4-4-4-4-|
                           G/F#      A|5-5-5-5-5-5-5-5-5-5-5-5-5-5-5-5-|5-5-5-5-5-5-5-5-5-5-5-5-5-5-5-5-|
You gave it all away                E|3-3-3-3-3-3-3-3-3-3-3-3-3-3-3-3-|2-2-2-2-2-2-2-2-2-2-2-2-2-2-0-2-|
 E  G/F#   G
It was mine
                        G/F#
So when you`re dead and gone
   E  G/F# G
Will you, remember this night, twenty years
     G/F#
now lost
 E  G/F#
It`s not right

(Riff 1)

(Riff 2)
 The anger hurts my ears
 Been running strong for seven years
 Rather than fix the ploblems,
 They never 'solve them
 It makes no sense at all
 (Riff 2)
 I see them every day
 We get along so why can`t they?
 If this is what he wants, and this is what
 she wants
 Then why's there so much pain?

(Refrão)

It`s not right
Riff 3:
E|--------------|
B|--------------|
G|--------------|
D|--------7---7-|
A|--5-5-5---5---|
E|--------------|

E|--------------|
B|--------------|
G|---7~---7--9--|
D|---x----x--x--|
A|---5~---5--7--|
E|--------------|

(Refrão)
              G     G/F#
It`s not right (4x)

( G  G/F# )

0 comentários

    mostrar mais comentários

    Conseguiu tocar?

    25tocaram0ainda não

    Grave um vídeo tocando Stay Together For The Kids e mande pra gente!

    00:00 / 00:00
    outros vídeos desta música
    repetirqualidadeautomática
    Outro vídeos desta música
      00:00 / 00:00
      automática
      OK