Cifra Club

What´s My Age Again ?

blink-182

Cifra: Principal (violão e guitarra)
exibições 224.517
Tom: F
(verso 1)

E|--------------------------------------------------|
B|-----11--------11---------11-----------11---------|
G|---11--11----11--11-----11--11-------11--11-------|
D|--------------------------------------------------|
A|-9------------------------------------------------|
E|-----------9---------11-----------7---------------|

(verso 1)

I took her out,
It was a Friday night.
I wore cologne 
To get the feeling right.
We started making out,
And she took off my pants,
But then I turned on the T.V.

                              F#5     C#5    D#5
And thats about the time she walked away from me.
      B5                  F#5    C#5     D#5
Nobody likes you when your twenty-three.
        B5              F#5   C#5    D#
And are still more amused by T.V. shows
                B5
What the hell is A.D.D.?
   F#5                  C#5
My friends say I should act my age,
                    D#5
Whats my age again?
                    C#5
Whats my age again?

(verso 2)
Bb F C Dm
And later on,
On the drive home.
I called her mom,
>From a pay phone.
I said I was the cops,
And your husbands in jail.
The state looks down on sodomy, (segura em C)

                                 F#5     C#5  D#5
And thats about the time that bitch hung up on me.
       B5              F#5     C#5  D#5
Nobody likes you when your twenty-three.
             B5                F#5     C#5  D#
And are still more amused by prank phone calls.
                 B5
What the hell is call I.D.?
    F#5                C#5
My friends say I should act my age.
                    D#5
Whats my age again?
                    C#5
Whats my age again?


E|----------------------------|
B|---11-----------------------|
G|-----11---------------------|
D|-9--------------------------| 4 vezes
A|----------------------------|
E|----------------------------|


E|--------------------------------------------|
B|--------------------------------------------|
G|--------------------------------------------|
D|----------8h9-----------8h9h8---------------| 2 vezes
A|--9-9-9-9-------9-9-9-9---------------------|
E|--------------------------------------------|


E|--------------------------------------------|
B|---------7-----------7-----------7----------|
G|--------------------------------------------|
D|---8-----------8-----------8----------------|
A|-9---9-------9---9-------9---9--------------|
E|--------------------------------------------|



And thats about the time she walked away from me.
Nobody likes you when your twenty-three.
And you still act like your in freshman year.
What the hell is wrong with me?
My friends say I should act my age.
Whats my age again?
Thats about the time that she broke up with me.
Noone should take themselves so seriously.
With many years I've had to fall in line.
Why would you wish that on me?
I never want to act my age.
Whats my age again?
Whats my age again?
Acordes para:

    0 comentários

    mostrar mais comentários

    Conseguiu tocar?

    21 tocaram 0 ainda não

    Grave um vídeo tocando What´s My Age Again ? e mande pra gente!

    00:00 / 00:00
    outros vídeos desta música
    repetir qualidade Automático
    Outros vídeos desta música
    00:00 / 00:00
    Automático
    OK