Cifra Club

What´s My Age Again ?

blink-182

Cifra: Versão 3 (violão e guitarra)
Tom: F#
Intro: B F# C# D#

Riff Inicial:

e|------------------------------------------------------|
b|-------------11-----------11------------13-------13---|
g|---------11-----11----11-----11----13----13--------13-|
d|--09--------------------------------------------------| 8x
a|-------------------09---------------------------------|
E|----------------------------------11----------13------|

*2x só o solo, 2x entra o baixo, e depois segue cantando. 

B        F#     
I took her out
C#         D# 
It was a Friday night
B        F# 
I wore cologne
C#         D# 
To get the feeling right
B           F# 
We started making out
C#           D# 
And she took off my pants
B           F#            C# 
But then I turned on the T.V.

(No F#, entra a guitarra destorcida fazendo os bicores) 
      B                              F#     C#    D#                                   
And thats about the time she walked away from me
        B                     F#     C#    D# 
Nobody likes you when your twenty-three
         B                 F#     C#    D#
And are still more amused by TV shows
                 B
What the hell is A.D.D.?
     F#                  C#     D#                 
My friends say I should act my age, 
                    C#                    B
What's my age again? What's my age again?

*Tocar Riff Inicial (1x) e segue só com os bicordes

B        F#     
And later on
C#         D# 
On the drive home
B        F#
I called her mom
C#         D# 
From a pay phone
B        F#
I said I was the cops
C#         D#
And your husbands in jail
B           F#            C# 
The state looks down on sodomy 

(No F#, entra a guitarra destorcida fazendo os bicores) 

      B                                F#     C#    D# 
And thats about the time that bitch hung up on me
        B                     F#     C#    D# 
Nobody likes you when your twenty-three
        B                     F#     C#    D# 
And I shall more of make these prank phone calls
                 B
What the hell is caller I.D.?
    F#                 C#         D#
My friends say I should act my age
                    C#                    B
What's my age again? What's my age again?

Riffs:


e|--06----
b|----07--
g|--------    (4x)
d|--------
a|--------
E|--------

e|-----------------------------------|---------------------------------------|
b|-----------------------------------|---------------------------------------|
g|-----11----11-------11----11-------|.-------------------------------------.|
d|--------11----11-------11----11----|.---------08/09-----------08/09/08----.|
a|--09-------------09-------------09-|--09-09-09-------09-09-09----------09--|
E|-----------------------------------|---------------------------------------|
 
                    8x                    
e|-------------------|
b|-------------------|
g|---------11--------|
d|------O8-------08--|
a|---09-------09-----|
E|-------------------|

(No F#, entra a guitarra destorcida fazendo os bicores) 

                                    F#    C#      D#                    
And thats about the time she walked away from me
        B                     F#     C#    D#                     
Nobody likes you when your twenty-three
        B                        F#     C#    D#                           
And you still act like your in freshman year
                     B
What the hell is wrong with me?
F#                     C#        D#   
My friends say I should act my age 
 D#               C#           C#
Whats my age again?  (What's my age again ?)
C#                                 F#     C#    D# 
Thats about the time that she broke up with me
B                                  F#     C#    D# 
Noone should take themselves so seriously
B                                  F#     C#    D# 
With many years I've had to fall in line
                    B
Why would you wish that on me?
F#             C#        D#
I never want to act my age. 
                    C#                    B
What's my age again? What's my age again?

Intro (4x)

C#                   B                   
What's my age again? 

exibições 78.327
Acordes para:
    Colaboração e revisão:
    • Gustavo Munhoz
    • Rodrigo Silva

    0 comentários

    mostrar mais comentários

    Conseguiu tocar?

    0 tocaram 0 ainda não

    Grave um vídeo tocando What´s My Age Again ? e mande pra gente!

    00:00 / 00:00
    outros vídeos desta música
    repetir qualidade Automático
    Outros vídeos desta música
    00:00 / 00:00
    Automático
    OK