Cifra Club

What´s My Age Again ?

blink-182

Cifra: Versão 5 (violão e guitarra)
Tom: B
(Intro)

|---------------------------------------------------|
|-------13---------13---------13----------13--------|
|-----13--13-----13--13-----13--13------13--13------| 6x(o Mark começa a cantar na 4x)
|---11----------------------------------------------|
|--------------11-----------------------------------|
|-------------------------11---------13-------------|
I took her out, it was a friday night
I wore cologne to get the feeling right
We started making out, and she took off my pants

(na sétima vez faz assim:)
|---------------------------------------------------||---------------------------------------------|
|-------13---------13---------13----------13--------||-----13---------13---------13----------13----|
|-----13--13-----13--13-----13--13------13--13------||---13--13-----13--13-----13--13------13--13--|
|---11----------------------------------------------||-11------------------------------------------|
|--------------11-----------------------------------||-----------11--------------------------------|
|-------------------------11----------11------------||----------------------11----------11---------|
But then i turned on the tv

(Verse) 1

|-----------------------------|
|-----------------------------|
|-------88---1010---66666-----|3x(começa a tocar no "away from me") 
|---6---88---1010---66666-----|
|---6---66---8-8----44444-----|
|---4-------------------------|

(na 4x faz assim:)
|---------------------------------------|
|---------------------------------------|
|-----88---1010101010101010---88888888--|(a 4x vez começa no "My friends say i should act my age")
|--6--88---1010101010101010---88888888--|
|--6--66---8-8-8-8-8-8-8-8----66666666--|
|--4------------------------------------|

And thats about the time she walked away from me
Nobody likes you when you're 23
And are still more amused by tv shows
What the hell is add?
My friends say i should act my age

Whats my age again?
Whats my age again?

(Intro) 1x

(Verse) 2

(tocar abafado)
|-------------------------------|   
|-------------------------------|   
|--6666--------8888-------------|   
|--6666--6666--8888--10101010---|   
|--4444--6666--6666--8-8-8-8----|   
|--------4444-------------------|   

|----------------------------------|
|----------------------------------|
|--6666--------88888888------------|(começa a tocar no "This state looks down on sodomy")
|--6666--6666--88888888--66666666--|
|--4444--6666--66666666--44444444--|
|--------4444----------------------|

Later on, on the drive home
I called her mom from a pay phone
I said i was the cops
And your husbands in jail
This state looks down on sodomy

(Verse) 1

|-----------------------------|
|-----------------------------|
|-------88---1010---66666-----|3x(começa a tocar no "hung up on me") 
|---6---88---1010---66666-----|
|---6---66---8-8----44444-----|
|---4-------------------------|

(na 4x faz assim:)
|---------------------------------------|
|---------------------------------------|
|-----88---1010101010101010---88888888--|(a 4x vez começa no "My friends say i should act my age")
|--6--88---1010101010101010---88888888--|
|--6--66---8-8-8-8-8-8-8-8----66666666--|
|--4------------------------------------|
And thats about the time that bitch hung up on me
Nobody likes you when you're 23
And are still more amused by prank phone calls
What the hell is call id?
My friends say i should act my age
Whats my age again?
Whats my age again?

(it's the soft pitty part!)

(Interlude)

|---------------------------------|
|----13----13-------13----13------|
|------13----13-------13----13----| 
|--11----------11-11----------11--|
|---------------------------------|
|---------------------------------|     

|------------------------------------|
|------------------------------------|
|------------------------------------|2x
|----------10~11---------10~11~10----|
|--11-11-11------11-11-11--------11--|
|------------------------------------| 

|------------------|
|------------------|
|--------13--------| 8x
|----10----10--10--|
|--11--11----11----|
|------------------| 

(Verse) 1

|-----------------------------|
|-----------------------------|
|-------88---1010---66666-----|3x(começa a tocar no "away from me") 
|---6---88---1010---66666-----|
|---6---66---8-8----44444-----|
|---4-------------------------|

(na 4x faz assim:)
|---------------------------------------|
|---------------------------------------|
|-----88---1010101010101010---88888888--|(a 4x vez começa no "My friends say i should act my age")
|--6--88---1010101010101010---88888888--|
|--6--66---8-8-8-8-8-8-8-8----66666666--|
|--4------------------------------------|
And thats about the time she walked away from me
Nobody likes you when you're 23
And you still act like you're in freshman year
What the hell is wrong with me?
My friends say i should act my age
Whats my age again?
Whats my age again?

(Verse) 1

|-----------------------------|
|-----------------------------|
|-------88---1010---66666-----|3x(começa a tocar no "away from me") 
|---6---88---1010---66666-----|
|---6---66---8-8----44444-----|
|---4-------------------------|

(na 4x faz assim:)
|---------------------------------------|
|---------------------------------------|
|-----88---1010101010101010---88888888--|(a 4x vez começa no "I never want to act my age")
|--6--88---1010101010101010---88888888--|
|--6--66---8-8-8-8-8-8-8-8----66666666--|
|--4------------------------------------|
And thats about the time she broke up with me
No one should take themselves so seriously
With many years to go and fall in line
Why would you wish that on me?
I never want to act my age
Whats my age again?
Whats my age again?

(Verse) 1

|-----------------------------|
|-----------------------------|
|-------88---1010---66666-----| 
|---6---88---1010---66666-----|
|---6---66---8-8----44444-----|
|---4-------------------------|

(na 4x faz assim:)
|-------------------------------------------|
|-------------------------------------------|
|-----88---1010101010101010---88888888---6--|(deixe a última nota tocar)
|--6--88---1010101010101010---88888888---6--|
|--6--66---8-8-8-8-8-8-8-8----66666666---4--|
|--4----------------------------------------|

Whats my age again?

Fuck yeah!

(Ordem):

(Intro):8x
(Verse) 1:
(Intro):1x
(Verse) 2:
(Verse) 1:
(Interlude):
(Verse) 1:3x
-->essa é a versão ao vivo da música.
exibições 7.177
Acordes para:
    Colaboração e revisão:
    • Joao

    0 comentários

    mostrar mais comentários

    Conseguiu tocar?

    0 tocaram 0 ainda não

    Grave um vídeo tocando What´s My Age Again ? e mande pra gente!

    00:00 / 00:00
    outros vídeos desta música
    repetir qualidade Automático
    Outros vídeos desta música
    00:00 / 00:00
    Automático
    OK