Cifra Club

What´s My Age Again ?

blink-182

Cifra: Versão 2 (violão e guitarra)
Tom: B
Toque a intro até onde diz "And thats about the time she walked..."
e mete porrada nos acordes no "...away from me"

Ok, chega de falar...


Intro e verso 1, também é tocada acompanhada pelo baixa ate o "away from me"
e|---------------------------------------------
B|-----11--------11-------11-------11----------
G|---11--11---11--11---11--11---11--11---------
D|--9-------9----------------------------------
A|---------------------------------------------
E|---------------------------------------------


REFRÃO - Essa parte é tocada do "away from me" -> mete a porrada!

e|--------------------------------
B|--------------------------------
G|------66--88--44444-------------
D|--4---66--88--44444-------------  3x!!
A|--4---44--66--22222-------------
E|--2-----------------------------
                até a parte onde ele diz "What the hell is A.D.D.?"
                e tem uma pequena diferença:
e|--------------------------------------------
B|-------------------------------------------- faz essa prolongação e
G|-------66----88888888------6666666------4--- acaba com 1 batida no G|-4
D|--4----66----88888888------6666666------4---                       D|-4
A|--4----44----66666666------4444444------2---                       A|-2
E|--2-----------------------------------------



Verso 1:

I took her out,
It was a Friday night.
i walk alone
To get the feeling right.
We started making out,
And she took off my pants,
But then I turned on the T.V.
And thats about the time she walked away from me.
Nobody likes you when your twenty-three.
And are still more amused by TV shows
What the hell is A.D.D.?
My friends say I should act my age,
Whats my age again?
Whats my age again?





Verse 2 (Guitarra com mute!!): Rythm
e|------------------------------------
B|------------------------------------
G|---4444----------6666---8888-------- 
D|---4444---4444---6666---8888-------- 3x
A|---2222---4444---4444---6666--------
E|----------2222----------------------

Outra pequena diferença na ultima vez fica assim:
e|--------------------------------------------
B|-------------------------------------------- toca o dobro de batidas no
G|---4444----------66666666---44444444--------  G| -6-   -4-
D|---4444---4444---66666666---44444444--------  D| -6- e -4-
A|---2222---4444---44444444---66666666--------  A| -4-   -2-
E|----------2222------------------------------

And later on,
On the drive home.
I called her mom,
>From a pay phone.
I said I was the cops,
And your husbands in jail.
The state looks down on sodomy,
And thats about the time that bitch hung up on me.
Nobody likes you when your twenty-three.
And are still more amused by prank phone calls.
What the hell is call I.D.?
My friends say I should act my age.
Whats my age again?
Whats my age again?


---------------REFRÃO!!-------------


agora tem esse interludio


Bridge (lead): 1
e|------------------------------------------------
B|-- 11-------11------------11------11-------------
G|-8----11-------11-----------11-------11---------  
D|-----------------------9------------------------
A|------------------------------------------------
E|------------------------------------------------

Bridge (lead): 2
e|---------------------------------------------------------------
B|---------------------------------------------------------------
G|---------------------------------------------------------------
D|--------8/9----------8/9----------8/9---------8/9--------------
A|--9-9-9-------9-9-9----------9-9-9-------9-9-9-----------------
E|---------------------------------------------------------------

Bridge (lead): 3
e|-------------------------          
B|-------------------------
G|---------11--------------
D|----8--------8----8------  x8
A|--9---9---------9--------
E|-------------------------


---------REFRÃO um poço diferente!--------

e|--------------------------------
B|--------------------------------
G|------66--88--4444--------------
D|--4---66--88--4444--------------  3x!!
A|--4---44--66--2222--------------
E|--2-----------------------------
                até a parte onde ele diz "What the hell is A.D.D.?"
                e tem uma pequena diferença:
e|--------------------------------------------
B|-------------------------------------------- faz essa prolongação e
G|-------66----88888888----6666666----4------- acaba com 1 batida no G|-4
D|--4----66----88888888----6666666----4-------                       D|-4
A|--4----44----66666666----4444444----2-------                       A|-2
E|--2-----------------------------------------

Toca essa ultima parte inteira 3x!!!!

Detalhe: nessa ultima parte vc so toca a ultima batida ( a do G|4 D|4 A|2) na ultima 3ª vez!


A letra tbm muda um poquinho

And thats about the time she walked away from me.
Nobody likes you when your twenty-three.
And you still act like your in freshman year.
What the hell is wrong with me?
My friends say I should act my age.
Whats my age again?
Thats about the time that she broke up with me.
Noone should take themselves so seriously.
With many years I've had to fall in line.
Why would you wish that on me?
I never want to act my age.
Whats my age again?
Whats my age again?

Whats my age again?
exibições 79.259
Acordes para:
    Colaboração e revisão:
    • Rafael Elias
    • diego sousa

    0 comentários

    mostrar mais comentários

    Conseguiu tocar?

    1 tocaram 0 ainda não

    Grave um vídeo tocando What´s My Age Again ? e mande pra gente!

    00:00 / 00:00
    outros vídeos desta música
    repetir qualidade Automático
    Outros vídeos desta música
    00:00 / 00:00
    Automático
    OK