Cifra Club

Olhos Vermelhos

Capital Inicial

Tab de baixo: Principal
exibições 2.523
(intro)

A|5----------------------------------------5--|
E|----------------------------3---------------|
  Os velhos olhos vermelhos voltaram dessa vez

A|--------------------2-----------------------|
E|---------------------------------------3----|
  Com o mundo nas costas e a cidade nos pés

D|----------0----|
A|----0-2--------|
E|--3------------|

A|5-------------------------------------------|
E|-----------------------------3--------------|
  Pra que sofrer se nada é pra sempre?

A|-----------5--------------------------2-----|
E|--------------------------------------------|
  Pra que correr se nunca me vejo de frente?

(refrão)
A|--------------------------------------------|
E|3---------------5---------------3-----------|
  Eu parei de pensar e comecei a sentir

A|5-------------------------------------------|
E|--------------------------------------------|
  Nada como um dia após dia

A|-------------------|
E|3------------------|
  Uma noite, um mês

A|--------------------------------------------|
E|------------3-------------------------------|
  Os velhos olhos vermelhos voltaram... De vez

A|5-------------------------------------------|
E|-----------------------------3--------------|
  Os velhos olhos vermelhos enganam sem querer

A|--------------------------2-----------------|
E|--------------------------------------------|
  Parecem claros, frios distantes

A|-------------------------|
E|------------------3------|
  Não têm nada a perder

D|----------0----|
A|----0-2--------|
E|--3------------|

A|5-------------------------------------------|
E|------------------------------3-------------|
  Por que se preocupar por tão pouco?

A|-----------5-----|
E|-----------------|
  Por que chorar

A|------------------------2-------------------|
E|--------------------------------------------|
  Se amanhã tudo muda de novo?


A|--------------------------------------------|
E|3---------------5--------------3------------|
  Eu parei de pensar e comecei a sentir

(refrão)
A|5-----------------------|
E|------------------------|
  Nada como um dia após dia

A|--------------------|
E|3-------------------|
  Uma noite, um mês

A|-----------------------|
E|------------3----------|
  Os velhos olhos vermelhos voltaram... De vez

A|--------------------------------------------|
E|3---------------5--------------3------------|
  Eu parei de pensar e comecei a sentir

A|5--------------------|
E|---------------------|
  Nada como um dia após dia

A|----------------------|
E|3---------------------|
  Uma noite, um mês

E|----------------------|
A|------------3---------|
  Os velhos olhos vermelhos voltaram... De vez

(solo final)
Composição: Alvin L. / Dinho Ouro PretoColaboração e revisão:
  • Renato Maisano

0 comentários

    mostrar mais comentários

    Conseguiu tocar?

    0tocaram0ainda não

    Grave um vídeo tocando Olhos Vermelhos e mande pra gente!

    00:00 / 00:00
    outros vídeos desta música
    repetirqualidadeautomática
    Outro vídeos desta música
      00:00 / 00:00
      automática
      OK