Cifra Club

Ninguém Te Ama Como Eu

Católicas

Tab de baixo: Principal
(versos faz uma levada mais traquila)
E|-------------1--1---3-2-----|
A|--3-3-2-2-0-0-0-----3-3-----|
D|----------------------------|
G|----------------------------|

(no refrão fazer umas levadas variadas, com 5ª)
E|------------5---1-------3-----------|
A|---3--3-2--2-------3-3------5/7/5---|
D|-----5---5--------------------------|
G|------------------------------------|
Compositor não encontrado.
Colaboração e revisão:
  • Luiz Santos
  • Junior
10.584 exibições

0 comentários

Ver todos os comentários
00:00 / 00:00
Outros vídeos desta música
Repetir Qualidade Automático
Outros vídeos desta música
00:00 / 00:00
Automático

Cifra Club Pro

Aproveite o Cifra Club com benefícios exclusivos e sem anúncios
Cifra Club Pro
Aproveite o Cifra Club com benefícios exclusivos e sem anúncios
OK