Cifra Club

Aprenda

Confidências

Chitãozinho & Xororó

Cifra: Principal (violão e guitarra)
Quer fazer aulas de música com a gente? Responda essas perguntas
e nos ajude nesse projeto! →
tom: A
Introdução:

Solo da introdução:

     A      E           F#m    A      D        A
E|--17--17-16-------16---------------------------|
B|------------19-17----19--19-19--19-15----12-14-|
G|--------------------------------------14-------|
D|-----------------------------------------------|
A|-----------------------------------------------|
E|-----------------------------------------------|
           Bm E7  A      E           F#m    A  D
E|------------|--17--17-16-------16--------------|
B|--15-17-12--|------------19-17----19--19-19----|
G|------------|-------------------------------14-|
D|------------|----------------------------------|
A|------------|----------------------------------|
E|------------|----------------------------------|
                    A      D
E|------------------------| Solo da introdução
B|-15-------12--14-14-----| transcrito por:
G|----14-14-----------14--| Jorcimar Ferreira
D|------------------------| de Paiva.
A|------------------------|
E|------------------------|

A             C#m        F#m
Abra os olhos do seu coração
E        D  E7         A
Vê se me vê cheio de Paixão
C#7         F#m          B7  A/C#
Bem ao lado seu Enquanto ele não te quer
B/D#        B7         E7
Nem se quer olha pra você
       Bm                  E7
Não me tire por favor a ilusão
     Bm                    E7
Me dizendo que sou quase seu irmão
D           A  D
Tente me querer
A         C#m           F#m
Suas confidências nunca mais
E          D   E7           A
Eu quero ouvir sobre esse rapaz
C#7           F#m
Algo aqui me diz
            B7    A/C#
Que ele nem sonha em te amar
B/D#      B7         E7
Em tentar te fazer feliz
        Bm                     E7
E eu querendo um minuto de atenção
      Bm                     E7
Pra falar de coração pra coração
        A             C#m
Ah! Coração...Ah! Coração
         D            E7        A
Te dou o céu por um olhar apaixonado
      C#m                F#m
Estou aqui, por que não vê
         D           E7          A  C#7 F#m D E7
Meu coração sofrendo tanto por você
A         C#m           F#m
Suas confidências nunca mais
E          D   E7           A
Eu quero ouvir sobre esse rapaz
C#7           F#m
Algo aqui me diz
            B7
Que ele nem sonha em te amar
                     E7
Em tentar te fazer feliz
        Bm                     E7
E eu querendo um minuto de atenção
      Bm                     E7
Pra falar de coração pra coração
        A             C#m
Ah! Coração...Ah! Coração
         D            E7        A
Te dou o céu por um olhar apaixonado
      C#m                F#m
Estou aqui, por que não vê
         D           E7          A
Meu coração sofrendo tanto por você
        A             C#m
Ah! Coração...Ah! Coração
         D            E7        A
Te dou o céu por um olhar apaixonado
      C#m                F#m
Estou aqui, por que não vê
         D           E7          A
Meu coração sofrendo tanto por você...
Composição de Paulinho Rezende / Paulo Debétio
Colaboração e revisão:
  • João Silva
  • Renata nascimento
180.992 exibições
    • ½ Tom
    • A
    • Bb
    • B
    • C
    • Db
    • D
    • Eb
    • E
    • F
    • F#
    • G
    • Ab
  • Adicionar à lista

    0 comentários

    Ver todos os comentários
    00:00 / 00:00
    Outros vídeos desta música
    Repetir Qualidade Automático
    Outros vídeos desta música
    00:00 / 00:00
    Automático

    Cifra Club Pro

    Aproveite o Cifra Club com benefícios exclusivos e sem anúncios
    Cifra Club Pro
    Aproveite o Cifra Club com benefícios exclusivos e sem anúncios
    OK