Cifra Club

Funland At The Beach

Dead Kennedys

Tab de baixo: Principal
After the intro
                       |play 3 X's
G|---------------------|-------|
D|---------------------|-------|
A|-7-5-----------------|-------|
E|-----8-6-8-5---------|-88-5--|

Before the verse play 2X's
G|--------------------|
D|--------------------|
A|-00-33-00-----------|
E|----------00--------|

Verse 1
G|----------------------------------------|
D|----------------------------------------|
A|-333-0~-333-0~-55-88-55----00-33-00-----|
E|------------------------55----------00--|

Fill on verse 1
G|---------------------|
D|---------------------|
A|-7-7-10-5-6-5-6-5-3--|
E|-------------------3-|

G|-------------------|
D|-------------------|
A|-00-33-00----------|
E|----------00-------|

Verse 2
G|------------------------------------------|
D|------------------------------------------|
A|-333-0~---333-0~-55-88-55----00-33-00-----|
E|--------------------------55----------00--|

"Crushed little kids" 3X's
G|--------------------|
D|--------------------|
A|-7-5----------------|
E|-----8-6-8-5--------|

G|--------------------|
D|--------------------|
A|--------------------|
E|-55-88-5------------|

G|--------------------|
D|--------------------|
A|-00-33-00--0--------|
E|---------00---------|

Bridge  3X's
G|---------------------|
D|---------------------|
A|-77-55---------------|
E|------77-0-2-3-------|

4X's
G|---------------------|
D|---------------------|
A|-7-5---7-5-----------|
E|--7--7--7-7----------|

 2X's
G|----------------------|
D|----------------------|
A|-55-88-55-88----------|
E|----------------------|

2X's
G|--------------------|
D|--------------------|
A|-00-33-00-33--------|
E|--------------------|

Verse 3
G|-----------------------------------------|
D|-----------------------------------------|
A|-333-0~-333-0~-55-88-55----00-33-00------|
E|------------------------55----------00---|

Fill on verse 3 "Note 10 is ten not zero one"
G|---------------------|
D|---------------------|
A|-7-7-10-5-6-5-6-5-3--|
E|-------------------3-|

G|------------|
D|------------|
A|-00-33-00---|
E|---------0--|


 |playpart3x's| than play all 2X's
G|------------|----------------|
D|------------|----------------|
A|-7-5--------|----------------|
E|----8-6-8-5-|--------55-88-5-|

G|
D|
A| 00 33 00 33 X3
E|

3X's
G|---------------|
D|---------------|
A|-77-55---------|
E|------77-0-2-3-|


G|-----------------|
D|-----------------|
A|-7-5-------------|
E|----86-8-5-88-5\-|
00:00 / 00:00
Outros vídeos desta música
Repetir
Outros vídeos desta música
Composição de Dead Kennedys / Jello Biafra
363 exibições

0 comentários

Ver todos os comentários

Entre para oCifra Club PRO

Tenha acesso a benefícios exclusivos no App e no Site

  • Chega de anúncios

  • Prioridade de compra em lançamentos

  • Mais recursos no app do Afinador

  • Atendimento Prioritário

  • Descontos nos produtos Cifra Club

  • Ajude a produzir mais conteúdo

00:00 / 00:00

Cifra Club Pro

Aproveite o Cifra Club com benefícios exclusivos e sem anúncios
Cifra Club Pro
Aproveite o Cifra Club com benefícios exclusivos e sem anúncios
OK