Cifra Club

Aprenda

On The Backs Of Angels

Dream Theater

Cifra: Principal (violão e guitarra)
tom: G
E|--------0----------0--------0---------------------0------------------|
B|------8--8--------8--------8-8-----------0------0---------0----7-----|
G|----11----11----11-------11---11-----7-----6---------7--5------------|
D|---9-------9--10--------9-------9------5-----5---------------8----8--|
A|-------------------------------------------------------------------9-|
E|-0--------------------0----------------------------------------------|

E|-------------------0-----------0----------0-------------------0-----|
B|---------0--------8--8--------8----------8-8----------------0-------|
G|-0----10--------11----11-----11--------11---11----0---0---0---------|
D|----10---------9--------9--10---------9-------9-----5---4--------5--|
A|---8----------------------------------------------------------------|
E|-------------0---------------------0--------------------------------|

E|-------------------------------0-----------0---------0----------------0---|
B|-------0----------------------8-8---------8---------8-8--------0----0-----|
G|------2-----------0---------11---11-----11--------11---11---7----6------7-|
D|-4-2-1-----------2---------9-------9--10---------9-------9----5----5------|
A|----------2--3--1---------------------------------------------------------|
E|--------------------3-1---0--------------------0--------------------------|

E|------------------------------------0-----------0-------0-------------0---|
B|---0---7-----------------0---------8-8---------8-------8-8-----------0----|
G|-5------------0-------10---------11---11-----11------11---11--0--0--0-----|
D|-----8---8----------10----------9-------9--10-------9-------9---5--4----5-|
A|------------9-----8-------------------------------------------------------|
E|------------------------------0-------------------0-----------------------|

E|------------------------------0--------------0-------------0---------0-|
B|-------0---------------------8-----8--------8--------0----0-0-------8--|
G|------2----------0---------11----11-------11-----7-----6----------11---|
D|-4-2-1----------2---------9----10--------9---------5----5--------9-----|
A|---------2-3---1-------------------------------------------------------|
E|-------------------3-1--0--------------0------------------------0------|

E|----------0------------------0-----------0-------------15-15-14----|
B|-----8------0-------0------0---0--------8-9---------8-----------12-|
G|---11---5---------0------0------------11---11-----11---------------|
D|-10-------------5------4-------------9-------9--10-----------------|
A|-------------------------------------------------------------------|
E|-----------------------------------0-------------------------------|

E|-------0-------------0------0-0----------0------------14-15-17-----|
B|------8--8---------3------2----0--------8-8--------8---------------|
G|----11----11-----7------6-------------11---11----11----------------|
D|---9--------9------------------------9-------9-10------------------|
A|-------------------------------------------------------------------|
E|-0---------------------------------0-------------------------------|

E|---------0--------------------0---------------0------|
B|-----0-----0----------0-----0---0-----------0---0----|
G|-2-2---2-----2------0------0--------------9----------|
D|---------------2--5------4--------------9------------|
A|--------------------------------------7------------7-|
E|------------------------------------0----------------|

E|------------------------------------------------------------------|
B|-----------------------------------0-5/7-8-7-5-0h3----------------|
G|---------------------------------------------------2h4-2p0--2/4\2-|
D|---9-7-9----------------------------------------------------------|
A|--7-----7--------------------7-9-10-------------------------------|
E|-7--------10p8-7-5p3-2dive--7-------------------------------------|

E|----------------------------------------------------|
B|-----------------------------------0-5/7-8-7-5-0h3--|
G|----------------------------------------------------|
D|---9-7-9--------------------------------------------|
A|--7-----7--------------------7-9-10-----------------|
E|-7--------10p8-7-5p3-2dive--7-----------------------|

E|-17p0-17-19-20-19-17p0---17p0---------------12-----|
B|-----------------------15----15-13p0-13p0-13--13p0-|
G|---------------------------------------------------|
D|---------------------------------------------------|
A|---------------------------------------------------|
E|---------------------------------------------------|

E|---12---------12h17p12------17h20p17-----Wammy-|
B|-13--13p0---12--------13--13--------17--17---------|
G|----------12------------14------------17-----------|
D|---------------------------------------------------|
A|---------------------------------------------------|
E|---------------------------------------------------|

E|---------------------------------------|----------------------------------|
B|---------------------------------------|----------------------------------|
G|---------------------------------------|--------------------------------3-|
D|---------------------------------------|--------------------------------3-|
A|------2---2--------5---8----7--2---1---|-------2--2-------4--4----------1-|
E|-0-0--0---0--0-0---3-----0-0-----3---2-|--0-0--0--0--0-0--3---0-0--0-0-0--|

E|---------------------------------------|-------------------------------|
B|---------------------------------------|-------------------------------|
G|---------------------------------------|--------------------------6----|
D|---------------------------------------|--------------------------6-5--|
A|------2---2--------5---8----7--2---1---|-----2--2-----4-4---------4-5--|
E|-0-0--0---0--0-0---3-----0-0-----3---2-|-0-0-0--0-0-0-3--0-0-0-0-0--3--|

E|--------------------|-------------------|
B|------x3------------|-------------------|
G|--------------------|-------------------|
D|--------------------|-------------------|
A|-----2--2------2--2-|-5-5-5-5-5---------|
E|-0-0-0--0--0-0-0--0-|-----------5-5-3-2-|

E|-----------|--------------------------------------------------------|
B|--riffA----|--------------------------------------------------------|
G|-----------|--------------------------------------------------------|
D|---2-2---2-|------------riffA--------------riffA--------------riffA-|
A|---2-2---2-|-5---------3------------------9------5-----------7------|
E|-000-0-000-|--0-0-0-0-0-------5-0-0-0-0-0----------0-0-0-0-0--------|

Composição de John Myung / John Petrucci / Jordan Rudess
Colaboração e revisão:
  • Pedro
6.244 exibições
    • ½ Tom
    • A
    • Bb
    • B
    • C
    • Db
    • D
    • Eb
    • E
    • F
    • F#
    • G
    • Ab
  • Adicionar à lista

    0 comentários

    Ver todos os comentários

    Conseguiu tocar?

    1 Tocaram 0 Ainda não

    Grave um vídeo tocando On The Backs Of Angels e nos envie!

    00:00 / 00:00
    outros vídeos desta música
    repetir qualidade Automático
    Outros vídeos desta música
    00:00 / 00:00
    Automático

    Cifra Club Pro

    Aproveite o Cifra Club com benefícios exclusivos e sem anúncios
    Cifra Club Pro
    Aproveite o Cifra Club com benefícios exclusivos e sem anúncios
    OK