Cifra Club

Aprenda

Theater of Salvation

Edguy

Cifra: Principal (violão e guitarra)
Tom: E
*Disable word wrap under edit to view this document correctly!

Tablature explanation:

h  = hammer on             .   = Palm mute
p  = pull off              A.H = Artificial harmonics
b  = Bend                  pb  = prebend
r  = release bend          s   = slide

All guitars are 1/2 downed


P R E L U D E:

Churchorgan:

F    F/D   F/C  C F     A
I've heard voices in my dream
F    F/D F/C   C  F         A    Gsus4 G
made me  stand up helped me see. Aaaaaaaaaaaaaah...


Guitar enters:

eb||--------|--------|--------|--------|
Bb||--------|--------|--------|--------|
Gb||--------|--------|--------|--------|
Db||--------|--------|--------|--------|
Ab||8-------|--------|8-------|--------|
Eb||6-------|--------|6-------|--------|

  oooooooooh....


eb||----------------|----------------|----------------|----------------|
Bb||----------------|----------------|----------------|----------------|
Gb||----------------|----------------|----------------|----------------| Repeat X 3
Db||8-------6-------|--------3-------|----------------|----------------|
Ab||6-------4-------|4-------1-------|6---------------|6---------------|
Eb||----------------|2---------------|4---------------|4---------------|

  Visions  called him to  awake  his  mind
  To find his horizon and find out what may be behind
  Take what you need You can find in the back of your soul!

eb||----------------|----------------|----------------|----------------|----------------|----------------|
Bb||----------------|----------------|----------------|----------------|----------------|----------------|
Gb||----------------|----------------|----------------|----------------|----------------|----------------|
Db||8-------6-------|--------3-------|----------------|----------------|----------------|----------------|
Ab||6-------4-------|4-------1-------|6---------------|7-------9-------|7---------------|--------9-------|
Eb||----------------|2---------------|4---------------|5-------7-------|5---------------|--------7-------|

  Wake up the king in yourself to be mighty and bold!


V E R S E   1:

eb||----------------|----------------|----------------|----------------|
Bb||----------------|----------------|----------------|----------------|
Gb||9---------------|8---------------|6---------------|----------------|
Db||11--------------|9---------------|7---------------|----------------|
Ab||----------------|----------------|----------------|4--7--9---999999|
Eb||----------------|----------------|----------------|2--5--7---777777|
                                                                 ......
  Seasons of doubt fear and silent desires of life     Have gone by
  Visions have called back my longing for freedom tonight Made me sigh...


V E R S E   2:

eb||----------------|----------------|----------------|----------------|
Bb||----------------|----------------|----------------|----------------|
Gb||9---------------|8---------------|6---------------|----------------|
Db||11--------------|9---------------|7---------------|----------------|
Ab||----------------|----------------|----------------|4--7--9---999999|
Eb||----------------|----------------|----------------|2--5--7---777777|
  ||P.M                                                          ......|
eb||----------------|----------------|----------------|----------------|
Bb||----------------|----------------|----------------|----------------|
Gb||----------------|----------------|----------------|----------------|
Db||----------------|----------------|----------------|----------------|
Ab||4444744444744474|4444744444744474|4444444444444444|4--7--9---999999|
Eb||----------------|----------------|2222222222222222|2--5--7---777777|
P.M ................ ................ ................           ......
  Wasting my life till the day that the voice has appeared... Made me see:

eb||----------------|----------------|----------------|----------------|
Bb||----------------|----------------|----------------|----------------|
Gb||9---------------|8---------------|6---------------|----------------|
Db||11--------------|9---------------|7---------------|----------------|
Ab||----------------|----------------|----------------|4--7--9---------|
Eb||----------------|----------------|----------------|2--5--7---------|
  ||                                                                   |
eb||----------------|----------------|----------------|----------------|
Bb||----------------|----------------|----------------|----------------|
Gb||----------------|----------------|----------------|----------------|
Db||----------------|----------------|----------------|----------------|
Ab||4444744444744474|4444744444744474|4444444444444444|4--7--9---------|
Eb||----------------|----------------|2222222222222222|2--5--7---------|
P.M ................ ................ ................
   I am the one that can make it through times of despair; I am free!"


B R I D G E:

    Acoustic guitar:
    Ab                                                 Eb                                B
eb||----------------|----------------|----------------|0---------------|------------2---|--------7-0-----|
Bb||------0------2--|----------------|------0---------|0---------------|----4-4s5---4---|--------9-7-0---|
Gb||----2--------2--|2---------------|----2-------2---|1---------------|--4---------4---|------------8---|
Db||--2----------2--|----------------|--2-------------|2---------------|4-----------4---|----------------|
Ab||0---------------|----------------|0---------------|2---------------|----------------|----------------|
Eb||----------------|----------------|----------------|0---------------|----------------|----------------|

                               They built up a symbol of warning to give me fear

    Ab               Eb               Cm7
eb||----------------|0---------------|----------------|----------------|
Bb||------0---------|0---------------|------------2---|----------------|
Gb||----2-------2---|1---------------|----1-4---1-----|----------------|
Db||--2-------------|2---------------|--2-------------|--------4-6-4---|
Ab||0---------------|2---------------|4---------------|--------6-7-6-6-|
Eb||----------------|0---------------|----------------|--------------7-|

  To keep me away from paradise although it's so near

    Ab               Eb                                B
eb||----------------|0---------------|------------2---|----------------|
Bb||------0---------|0---------------|----4-4s5---4---|----------------|
Gb||----2-------2---|1---------------|--4---------4---|----------------|
Db||--2-------------|2---------------|4-----------4---|----------------|
Ab||0---------------|2---------------|----------------|----------------|
Eb||----------------|0---------------|----------------|----------------|

  Expecting I don't take a look at what is behind:

eb||----------------|----------------|
Bb||----------------|----------------|
Gb||----------------|----------------|
Db||----------------|----------------|
Ab||7-7-7-7-7-7-7-7-|9-9-9-9-9-9-9-9-|
Eb||5-5-5-5-5-5-5-5-|7-7-7-7-7-7-7-7-|
      . . .            . . .
  Freedom calling...


C H O R U S:

eb||---------------------|-----------------|---------------------|-----------------|
Bb||---------------------|-----------------|---------------------|-----------------|
Gb||---------------------|-----------------|---------------------|-----------------|
Db||---------------------|---------9---8---|6----------6-6-6---6-|6--------6---4---|
Ab||2----------2-2-2---2-|2--------7---6---|4----------4-4-4---4-|4--------4---2---|
Eb||0----------0-0-0---0-|0----------------|---------------------|-----------------|
P.M            . . .   .                               . . .   .
  Take a look at the open gate!           Walk on and don't be afraid!

eb||---------------------|-----------------|---------------------|-----------------|
Bb||---------------------|-----------------|---------------------|-----------------|
Gb||---------------------|-----------------|---------------------|-----------------|
Db||---------------------|-------------2---|4----------4-4-4---4-|4--------2---4---|
Ab||4----------4-4-4---4-|4--------4---0---|2----------2-2-2---2-|2--------0---2---|
Eb||2----------2-2-2---2-|2--------2-------|---------------------|-----------------|
P.M            . . .   .                               . . .   .
  Free your mind in what they call        It's the heart of temptation!

eb||----------------|----------------|
Bb||----------------|----------------|
Gb||----------------|----------------|
Db||----------------|----------------|
Ab||7---------------|----------------|
Eb||5---------------|----------------|


VERSE 1:

VERSE 2:

BRIDGE:

CHORUS:


S O L O   1:

eb||-------------7----|-------------7----|----------7--9--|9--7---------9--7------|
Bb||7--9--10--9----10-|7--9--10--9----10-|7--9--10--------|------10-----------9---|
Gb||------------------|------------------|----------------|-----------------------|
Db||------------------|------------------|----------------|-----------------------|
Ab||------------------|------------------|----------------|-----------------------|
Eb||------------------|------------------|----------------|-----------------------|
  ||                                                                              | Repeat X 2
eb||------------------|------------------|----------------|-----------------------|
Bb||------7------9-7--|------7------9-7--|------7---9--10-|10-9--7------10-9------|
Gb||8--9------9-------|8--9------9-------|7--9------------|-------------------9---|
Db||------------------|------------------|----------------|-----------------------|
Ab||------------------|------------------|----------------|-----------------------|
Eb||------------------|------------------|----------------|-----------------------|
  ||                                                                              |
eb||------------------|------------------|----------------|-----------------------|
Bb||------------------|------------------|----------------|-----------------------|
Gb||------------------|------------------|----------------|-----------------------|
Db||------------------|------------------|7---------------|----------------4------|
Ab||2-----------------|2-----------------|5---------------|4---------------2------|
Eb||0-----------------|0-----------------|----------------|2----------------------|

TAKE A LOOK AT THIS PART!!!!!!!!!!

eb||------------------------------------------------------------------------------|
Bb||?????-------------------------------------------------------------------------|
Gb||------------------------------------------------------------------------------|
Db||------------------------------------------------------------------------------|
Ab||------------------------------------------------------------------------------|
Eb||------------------------------------------------------------------------------|


I N T E R L U D E:

Keyboard:

Eb           Ab  Bb         Bb/C   Bb/D   Fm     Fsus4   Fm       Cm     Bb Bb/C Bb/D Bb
Queen of mine  I long for you   tell  me  why to wait to find our joy!

Eb             Ab5  Bb         Bb/C  Bb/D  Fm                     Fsus4   Fm      C                Bb
It's your wait  for heavens door      your fear that makes them grow          and let you forget today.


S O L O   2:

    Acoustic guitar:
eb||-------------12-|------------------|----------------|----------------|
Bb||10-h12-12-------|12-----10s12-10-9-|----------------|----------------|
Gb||----------------|------------------|11---------9-11-|-------------13-|
Db||----------------|------------------|----------------|----------11----|
Ab||----------------|------------------|----------------|----------------|
Eb||----------------|------------------|----------------|----------------|

eb||----------------|---------------------|12-----12-----12---|11------------------|
Bb||----------------|-----------9---------|---9------9--------|---12---------------|
Gb||11-9------------|---------9---11----9-|-----9------9------|------11-9-8-h9-8---|
Db||-----11-11------|-----9----------11---|-------------------|------------------9-|
Ab||----------------|---------------------|-------------------|--------------------|
Eb||----------------|---------------------|-------------------|--------------------|


eb||------------|----------------------9----------------------|----------------------------------|
Bb||------------|-------------9--10-12----12-10-9-------------|----------------------------------|
Gb||------------|-----8--9-11----------------------11-9-8-----|8--h9--9---------11-8------8--s9--|
Db||9-----------|9-11--------------------------------------11-|----------------------------------|
Ab||------------|---------------------------------------------|----------------------------------|
Eb||------------|---------------------------------------------|----------------------------------|
  ||                                                                                             | 
eb||------------|----------------9--11-12-11-9----------------|----------------------------------|
Bb||------------|--------9-10-12----------------12-10-9-------|----------------------------------|
Gb||------------|8-9--11--------------------------------11-9--|11-h13-13--------14-11-----11-s13-|
Db||------------|---------------------------------------------|----------------------------------|
Ab||------------|---------------------------------------------|----------------------------------|
Eb||------------|---------------------------------------------|----------------------------------|

eb||--------------------------|--------------------------|----------------------|-----------------|
Bb||--------------------------|--------------------------|----------------------|-----------------|
Gb||13-s14-14-s16-16-s18-18---|13-s14-14-s16-16-s14-14---|13-14-13-11-13-11-9-8-|9-11-9-8-9-8-6-4-|
Db||--------------------------|--------------------------|----------------------|-----------------|
Ab||--------------------------|--------------------------|----------------------|-----------------|
Eb||--------------------------|--------------------------|----------------------|-----------------|
  ||                                                                                              |
eb||--------------------------|--------------------------|----------------------|-----------------|
Bb||--------------------------|--------------------------|----------------------|-----------------|
Gb||9--s11-11-s13-13-s14-14---|9--s11-11-s13-13-s11-11---|9--11-9--8--9--8--6-4-|6-8--6-4-6-4-----|
Db||--------------------------|--------------------------|----------------------|-------------6-4-|
Ab||--------------------------|--------------------------|----------------------|-----------------|
Eb||--------------------------|--------------------------|----------------------|-----------------|


S T I C K:

eb||--------|--------|--------|--------|--------|--------|--------|--------|
Bb||--------|--------|--------|--------|--------|--------|--------|--------|
Gb||--------|--------|--------|--------|--------|--------|--------|--------|
Db||--------|----2---|4-------|----6---|--------|--------|6-------|4-------|
Ab||2-------|----0---|2-------|----4---|4-------|--------|4-------|2-------|
Eb||0-------|--------|--------|--------|2-------|--------|--------|--------|

  I'll        never go           and I'll  stay on your side.

eb||--------|--------|--------|--------|--------|--------|--------|--------|
Bb||--------|--------|--------|--------|--------|--------|--------|--------|
Gb||--------|--------|--------|--------|--------|--------|--------|--------|
Db||--------|----2---|4-------|----6---|--------|--------|--------|4-------|
Ab||2-------|----0---|2-------|----4---|4-------|--------|2-------|2-------|
Eb||0-------|--------|--------|--------|2-------|--------|0-------|--------|

  They'll     never know     what I  give to you is a piece of paradise.


S T I C K   2:

eb||--------|--------|------------------------------------------|------------------------------------------|
Bb||--------|--------|------------------------------------------|------------------------------------------|
Gb||--------|--------|------------------------------------------|------------------------------------------|
Db||--------|--------|------------------------------------------|------------------------------------------|
Ab||7-------|--------|7-----7----7----7----7-----7----7----7----|9-----9----9----9----9-----9----9----9----|
Eb||5-------|--------|5-----5----5----5----5-----5----5----5----|7-----7----7----7----7-----7----7----7----|
  ||                        .    .    .                                .    .    .                         |
eb||--------|--------|----------------------------9-11-9--------|---------------------9----9-11-12-11-9----|
Bb||--------|--------|---------9----9-10-12-10-12--------12-10--|--------9-10-9-10-12---12--------------12-|
Gb||9-------|--------|9-8-9-11---11-----------------------------|11-9-11-----------------------------------|
Db||--------|--------|------------------------------------------|------------------------------------------|
Ab||--------|--------|------------------------------------------|------------------------------------------|
Eb||--------|--------|------------------------------------------|------------------------------------------|
  ||                                                                                                       |
eb||--------|--------|------------------------------------------|--------------------------------9---------|
Bb||--------|--------|---------------------9----9-10-12-10-9----|-------------------9-10-9-10-12---12-10-9-|
Gb||--------|--------|-----------9----9-11---11--------------11-|---------9-11-9-11------------------------|
Db||11------|--------|11-9-11-12---12---------------------------|12-11-12----------------------------------|
Ab||--------|--------|------------------------------------------|------------------------------------------|
Eb||--------|--------|------------------------------------------|------------------------------------------|


eb||----------------|----------------|----------------|----------------|
Bb||----------------|----------------|----------------|----------------|
Gb||----------------|----------------|----------------|----------------|
Db||------9---------|------9---------|------9---------|----------------|
Ab||9-----7-------77|7-----7---9-----|9-----7-------77|7-----9---------|
Eb||7---------------|5---------7---77|7---------------|5-----7-------77|
  ||              ..               ..               ..               ..|
eb||----------------|----------------|----------------|----------------|
Bb||12--------------|----------------|----------------|----------------|
Gb||----------------|----------------|----------------|----------------|
Db||----------------|----------------|----------------|----------------|
Ab||----------------|----------------|----------------|----------------|
Eb||----------------|----------------|----------------|----------------|
  ||                                                                   |
eb||----------------|----------------|----------------|----------------|
Bb||9---------------|----------------|----------------|----------------|
Gb||----------------|----------------|----------------|----------------|
Db||----------------|----------------|----------------|----------------|
Ab||----------------|----------------|----------------|----------------|
Eb||----------------|----------------|----------------|----------------|

  Heaven can wait! Now I'm living!  Heaven can wait! Forever more.

eb||----------------|----------------|----------------|----------------|
Bb||----------------|----------------|----------------|----------------|
Gb||----------------|----------------|----------------|----------------|
Db||------9---------|6-6-6-6-6-6-6---|----------------|----------------|
Ab||9-----7---------|4-4-4-4-4-4-4-44|6-6-6-6-6-6-6---|7-7-7-7-9-9-9-9-|
Eb||7---------------|----------------|4-4-4-4-4-4-4-44|5-5-5-5-7-7-7-7-|
                       . .   . .   ..   . .   . .   ..   . .     . .
  Heaven can wait!  I am to live like I want to      also before I die

eb||----------------|----------------|----------------|----------------|
Bb||----------------|----------------|----------------|----------------|
Gb||----------------|----------------|----------------|----------------|
Db||------9---------|------9---------|------9---------|----------------|
Ab||9-----7-------77|7-----7---9-----|9-----7-------77|7-----9---------|
Eb||7---------------|5---------7---77|7---------------|5-----7-------77|
                  ..               ..               ..               ..
  Heaven can wait! You can't thrill me! Heaven can wait! Dance till we die!

eb||----------------|----------------|----------------|----------------|
Bb||----------------|----------------|----------------|----------------|
Gb||----------------|----------------|----------------|----------------|
Db||------9---------|6-6-6-6-6-6-6---|----------------|----------------|
Ab||9-----7---------|4-4-4-4-4-4-4-44|6-6-6-6-6-6-6---|7-7-7-7-9-9-9-9-|
Eb||7---------------|----------------|4-4-4-4-4-4-4-44|5-5-5-5-7-7-7-7-|
                       . .   . .   ..   . .   . .   ..   . .     . .
  Heaven can wait!  Welcome to the theater of salvation...


S O L O   3:

eb||12b14---r-12~--12-10-|9---10---12------------------|9-10----9---------------------------------|-----------------|
Bb||---------------------|--------------10-------10-12-|-----12---10-12-9b10r----9----------------|-----------------|
Gb||---------------------|-----------------------------|----------------------11---11-9-11-9----9-|11---11b13---9---|
Db||---------------------|-----------------------------|-------------------------------------11---|-----------------|
Ab||---------------------|-----------------------------|------------------------------------------|-----------------|
Eb||---------------------|-----------------------------|------------------------------------------|-----------------|

eb||-----------9~----------------------9-10-|12~---------------------------9---10---|12b14-----r-----12------|
Bb||---9-10-12-------------------10-12------|--------------------10---12------------|------------------------|
Gb||11--------------------------------------|---------------------------------------|------------------------|
Db||----------------------------------------|---------------------------------------|------------------------|
Ab||----------------------------------------|---------------------------------------|------------------------|
Eb||----------------------------------------|---------------------------------------|------------------------|
  ||                                                                                                         |
eb||-------------------------9~-------------|-----------9-10-12~--------------------|------------------------|
Bb||--------------------9-10----------------|-----10-12-----------------------------|------------------------|
Gb||---------------9-11---------------------|---------------------------------------|------------------------|
Db||----------------------------------------|---------------------------------------|------------------------|
Ab||----------------------------------------|---------------------------------------|------------------------|
Eb||----------------------------------------|---------------------------------------|------------------------|

    Tapping:
eb||p12h17p10h17p9h17p7h17p5h17p4h17p2h17p0h17-|
Bb||-------------------------------------------|
Gb||-------------------------------------------|
Db||-------------------------------------------|
Ab||-------------------------------------------|
Eb||-------------------------------------------|

eb||---------------------|-------------------|-----------------|-----------------------|
Bb||---------------------|-------------------|-----------------|-----------------------|
Gb||9pb11--r--9~-----9-7-|6---7---9----------|9pb11--r--9~-----|9---7h9p7-6------------|
Db||---------------------|------------7------|-----------------|--------------9--------|
Ab||---------------------|-------------------|-----------------|-----------------------|
Eb||---------------------|-------------------|-----------------|-----------------------|
  ||                     |
eb||---------------------|
Bb||---------------------|
Gb||14~---------------s2-|
Db||---------------------|
Ab||---------------------|
Eb||---------------------|

eb||------------------|----------------|----------------------9------9------|9------9------9------9------------|-------|
Bb||10--9----10--9----|12--10--9-------|12b14--12--12b14--12--12b14--12b14--|12b14--12b14--12b14--12b14-r-10---|-------|
Gb||-------9--------9-|----------9~----|------------------------------------|----------------------------------|11-----|
Db||------------------|----------------|------------------------------------|----------------------------------|-------|
Ab||------------------|----------------|------------------------------------|----------------------------------|-------|
Eb||------------------|----------------|------------------------------------|----------------------------------|-------|


S T I C K   3:

Keyboard-section: Not trancribed.


eb||--------------------------------|------------------------|--------------------------------|------------------------|
Bb||--------------------------------|------------------------|--------------------------------|------------------------|
Gb||--------------------------------|------------------------|--------------------------------|------------------------|
Db||--------------------------------|--------------------4---|--------------------------------|----------------6---4---|
Ab||--------------------------------|----------------7---2---|4-4-4-4-4-4-44444-4-4-4-4-4-4444|4-4-4-4-4-4-44444---2---|
Eb||5-5-5-5-5-5-55555-5-5-5-5-5-5555|5-5-5-5-5-5-55555-------|--------------------------------|------------------------|
    . . . . . . ..... . . . . . .... . . . . . . ....         . . . . . . ..... . . . . . .... . . . . . . ....
 "Hallelujah, hallelujah!" I hear the man in black his "Hallelujah, hallelujah!" He tries to keep me back, no!

eb||--------------------------------|------------------------|--------------------------------|------------------------|
Bb||--------------------------------|------------------------|--------------------------------|------------------------|
Gb||--------------------------------|------------------------|--------------------------------|------------------------|
Db||--------------------------------|--------------------2---|--------------------------------|----------------2---4---|
Ab||--------------------------------|----------------7---4---|2-2-2-2-2-2-22222-2-2-2-2-2-2222|2-2-2-2-2-2-22220---2---|
Eb||5-5-5-5-5-5-55555-5-5-5-5-5-5555|5-5-5-5-5-5-55555-------|--------------------------------|------------------------|
    . . . . . . ..... . . . . . .... . . . . . . ....         . . . . . . ..... . . . . . .... . . . . . . ....
 "Hallelujah, hallelujah!" Lock up the gates to wisdom hallelujah, hallelujah... Too late I've found the kingdom...

eb||----------------|----------------|----------------|----------------|
Bb||----------------|----------------|----------------|----------------|
Gb||----------------|----------------|----------------|----------------|
Db||----------------|----------------|----------------|4---------------|
Ab||2---------------|2---------------|7---------------|2---------------|
Eb||0---------------|0---------------|5---------------|----------------|

  Hallelujah,      hallelujah!          I    see    a  band of angels,

eb||----------------|----------------|----------------|----------------|
Bb||----------------|----------------|----------------|----------------|
Gb||----------------|----------------|----------------|----------------|
Db||----------------|----------------|----------------|----------------|
Ab||2---------------|2---------------|7-------6-------|4------4--------|
Eb||0---------------|0---------------|5-------4-------|2------2--------|

 Hallelujah,       hallelujah!        Free -  dom      ca  -  lling...


S O L O   4:

eb||--------------------|--------------------|16---16b17---14--------|----------------|
Bb||-----14---16--------|-----16---14--------|------------------16---|17--------------|
Gb||14-------------16---|13------------------|-----------------------|----------------|
Db||--------------------|--------------------|-----------------------|----------------|
Ab||--------------------|--------------------|-----------------------|----------------|
Eb||--------------------|--------------------|-----------------------|----------------|
  ||                                                                                  | Repeat X 2
eb||--------------------|--------------------|-----------------------|----------------|
Bb||--------------------|--------------------|17---17b19---16--------|14--------------|
Gb||-----14---16--------|-----16---14--------|------------------16---|----------------|
Db||14-------------16---|13------------------|-----------------------|----------------|
Ab||--------------------|--------------------|-----------------------|----------------|
Eb||--------------------|--------------------|-----------------------|----------------|

eb||16---16b17---14--------|--------|12h14h16h17p16p14p12h14h16h17p16p14p12h14h16h17p16p14p12| Hmmm... my ears don't quite
Bb||------------------12---|14------|????????????????????????????????????????????????????????| follow...
Gb||-----------------------|--------|--------------------------------------------------------|
Db||-----------------------|--------|--------------------------------------------------------|
Ab||-----------------------|--------|--------------------------------------------------------|
Eb||-----------------------|--------|--------------------------------------------------------|
  ||                                                                                         |
eb||-----------------------|--------|--------------------------------------------------------|
Bb||17---17b19---16--------|--------|--------------------------------------------------------|
Gb||-----------------------|--------|--------------------------------------------------------|
Db||------------------16---|18------|--------------------------------------------------------|
Ab||-----------------------|--------|--------------------------------------------------------|
Eb||-----------------------|--------|--------------------------------------------------------|

And that's it, it's not 100% completed, yet...
Composição de Tobias Sammet
Colaboração e revisão:
  • Eduardo Lyvio
2.171 exibições
    • ½ Tom
    • A
    • Bb
    • B
    • C
    • Db
    • D
    • Eb
    • E
    • F
    • F#
    • G
    • Ab
  • Adicionar à lista

    0 comentários

    Mostrar mais comentários

    Conseguiu tocar?

    0 Tocaram 0 Ainda não

    Grave um vídeo tocando Theater of Salvation e mande pra gente!

    00:00 / 00:00
    outros vídeos desta música
    repetir qualidade Automático
    Outros vídeos desta música
    00:00 / 00:00
    Automático

    Cifra Club Pro

    Aproveite o Cifra Club com benefícios exclusivos e sem anúncios
    Cifra Club Pro
    Aproveite o Cifra Club com benefícios exclusivos e sem anúncios
    OK