Cifra Club

The Weight Of The World

Editors

Cifra: Principal (violão e guitarra)
Selo Cifra Club: esta cifra foi revisada para atender aos critérios oficiais da nossa Equipe de Qualidade.
tom: D
  S2 S5 S7
E|---------|
B|---------|
G|-2--6--7-|
D|---------|
A|---------|
E|-2--5--7-|


Finger-Picking:

  S2      S5      S7
E|----------------------------------|
B|----------------------------------|
G|---2--2-2--6--6-6--7--7-7--7--7-7-|
D|--0--0----0--0----0--0----0--0----|
A|----------------------------------|
E|-2--2--2-5--5--5-7--7--7-7--7--7--|

|VERSEs 1 and 2|


S2       S5                 S7
  Keep a light on those you love
S2          S5                S7
  They will be there when you die
S2     S5                 S7
  Baby there's no need to fear
S2     S5                 S7
  Baby there's no need to cry

|CHORUS|

During the chorus, Tom plucks the G and B string, instead of plucking G alone. When 
playing with chords,
there is no change.

Chords:

  S5 S7 S3 S5
E|------------|
B|------------|
G|-6--7--4--6-|
D|------------|
A|------------|
E|-5--7--3--5-|


Finger-Picking:

  S5      S7      S3      S5
E|----------------------------------|
B|---5--5-5--7--7-7--3--3-3--5--5-5-|
G|---6--6-6--7--7-7--4--4-4--6--6-6-|
D|--0--0----0--0----0--0----0--0----|
A|----------------------------------|
E|-5--5--5-7--7--7-3--3--3-5--5--5--|


S5                         S7
Every little piece in your life
     S3        S5
Will add up to one
                           S7
Every little piece in your life
        S3                S5
Will it mean something to someone?

NOTE: In recent live performances Tom alternates the original chorus finger-picking
structure, like this:
      Both ways are correct.


E|------------------------------------|
B|---5--5-5--7--7-7--8--8-8--5--5-5---|
G|---6--6-6--7--7-7--7--7-7--6--6-6---|
D|--0--0----0--0----0--0----0--0------|
A|------------------------------------|
E|-5--5--5-7--7--7-7--7--7-5--5--5----|

|VERSES 2 AND 3|


Same scheme as on the first two verses.

|BRIDGE|


Chords:

 S10  S7 S5 S3
E|-------------|
B|-------------|
G|-11--7--6--4-|
D|-------------|
A|-------------|
E|-10--7--5--3-|

Finger-Picking:

  S10           S7      S5      S3
E|----------------------------------------|
B|----------------------------------------|
G|----11---11--11--7--7-7--6--6-6--4--4-4-|
D|---0----0-------0--0----0--0----0--0----|
A|----------------------------------------|
E|-10---10---10--7--7--7-5--5--5-3--3--3--|


S10               S7                 S5
You touch my face god whispers in my ears
                      S3
There are tears in my eyes
              S10
Love replaces fear
Outros vídeos desta música
    9 exibições
      • ½ Tom
      • A
      • Bb
      • B
      • C
      • Db
      • D
      • Eb
      • E
      • F
      • F#
      • G
      • Ab
    • Adicionar à lista

    Afinação da cifra

    Afinador online

      0 comentários

      Ver todos os comentários

      Conseguiu tocar?

      0Tocaram0Ainda não

      Grave um vídeo tocando The Weight Of The World e nos envie!

      Toque também

      1. Imagem do artista InterpolEvil Interpol
      2. Imagem do artista The NationalRains Of Castamere The National
      3. Imagem do artista The MaccabeesToothpaste Kisses The Maccabees
      4. Imagem do artista Smith & BurrowsWonderful Life Smith & Burrows

      Entre para o Cifra Club PRO

      Tenha acesso a benefícios exclusivos no App e no Site

      • Chega de anúncios

      • Badges exclusivas

      • Mais recursos no app do Afinador

      • Atendimento Prioritário

      • Aumente seu limite de lista

      • Ajude a produzir mais conteúdo

      Cifra Club Pro

      Aproveite o Cifra Club com benefícios exclusivos e sem anúncios
      Cifra Club Pro
      Aproveite o Cifra Club com benefícios exclusivos e sem anúncios
      Ops (: Contenido disponible sólo en portugués.
      OK