Cifra Club

Aprenda

Pretty Woman

Elvis Presley

Cifra: Principal (violão e guitarra)
Tom: G
[Intro]

E|-------------------------------------------|
B|-------------------------------------------|
G|-------------------------------------------|
D|-------------------------------------------|
A|--------2-5----------------------2-5-------|
E|--0-0-4--------------------0-0-4-----------|

[Riff 1]

E|-------------------------------------------|
B|-------------------------------------------|
G|-------------------------------------------|
D|------------4-2----------------------------|
A|--------2-5-----5--------------------------|
E|--0-0-4------------------------------------|

        A              F#m
Pretty woman, walkin' down the street
        A                F#m
Pretty woman the kind I like to meet
        D             E
Pretty woman I don't believe you, you're not the truth

No one could look as good as you

        A               F#m
Pretty woman won't you pardon me
        A                F#m
Pretty woman I couldn't help but see
        D              E
Pretty woman that you look lovely as can be

Are you lonely just like me

[Riff 2]

E|---------------------------------------|
B|---------------------------------------|
G|---------------------------------------|
D|--------------0------------------------|
A|--------2-5-4--------------------------|
E|--0-0-4--------------------------------|

  Dm           G
Pretty woman stop awhile
  C           Am
Pretty woman talk awhile
  Dm          G                  C
Pretty woman give your smile to me

  Dm          G
Pretty woman yeah, yeah, yeah
  C           Am
Pretty woman look myway
  Dm          G                    C  A
Pretty woman say you'll stay with me-eee
         F#m      Dm              E
Cause I need you, I'll treat you right
 A            F#m   Dm      E
Come with me baby, be mine tonight

        A           F#m
Pretty woman don't walk on by
        A           F#m
Pretty woman don't make me cry
        D
Pretty woman
       E
Don't walk away, hey, OK
If that's the way it must be, OK
I guess I'll go on home, it's late
There'll be tomorrow night, but wait
What do I see?

Is she walkin' back to me?

Yeah, she's walkin' back to me
Oh, oh,
        A
Pretty woman
Colaboração e revisão:
86.595 exibições
    • ½ Tom
    • A
    • Bb
    • B
    • C
    • Db
    • D
    • Eb
    • E
    • F
    • F#
    • G
    • Ab
  • Adicionar à lista

    0 comentários

    Mostrar mais comentários

    Conseguiu tocar?

    30 Tocaram 0 Ainda não

    Grave um vídeo tocando Pretty Woman e mande pra gente!

    00:00 / 00:00
    outros vídeos desta música
    repetir qualidade Automático
    Outros vídeos desta música
    00:00 / 00:00
    Automático
    OK