Enviar cifraEntrar

Adorai-adonai

Fernanda Brum

Cifra: Principal
exibições 123.972
Tom: C
Intro: 

        Am                 Em                      Am
E|-------------------------------------------------------0------|
B|-----------1---0-------------------3---1-------------------3--|
G|--------2--------------------0----------------------2---------|
D|--------------------------------------------------------------|
A|-----0------------------------------------------0-------------|
E|------------------------0-------------------------------------|


         G/B                 C                  G/B            Am                   Em              Am
E|-------------3----0----------------0-----------------------------------------------------------------|
B|--------------------------------------3------------0--------1----------1--0---------------------1----|
G|----------0--------------------0---------------0-------------------2-----------------2--0-------2----|
D|----------------------------------------------------------------2------------------------------------|
A|-----2-------------------3------------------2---------------0-----------------------------------0----|
E|--------------------------------------------------------------------------------0--------------------|


Am9                F           G
Meus pés pisaram Seol, minha mente morreu
Am9                 F           G
  Angústia me dominou, já não sou nem mais eu
C           G/B            Am9        G           Am9
 Meus olhos buscam teu rosto, onde está o meu Deus
                     F            G
Que ungiu a minha cabeça e me chamou “Filho meu"


         Am             Em                  Am             G/B
E|----------------------------------------------0--------------3--|
B|------------1--0--------------3--1---------------3--------------|
G|---------2---------------0----------------2---------------0-----|
D|----------------------------------------------------------------|
A|------0--------------------------------0---------------2--------|
E|--------------------0-------------------------------------------|


Am                    F         G
Estou no ventre do peixe, o terror me engoliu
Am                       F        G
  No mais profundo dos mares tua mão me cobriu
C                 G/B      Am            G          Am
 Por mais que eu fuja de tudo      tu me alcançarás
                       F             G
A tua Unção não me deixa, não me deixa nunca

Refrão:
C    G/B       Dm          Am          G
Adorai,  eu digo à minha alma, eu canto
C     G/B              Dm     Am          G
Aba Pai,  que quebra minhas correntes, clamo 
F       C     F     C           G
Adonai,       Adonai  tu és meu dono        (2x)

Am                    F         G
Estou no ventre do peixe, o terror me engoliu
Am                       F        G
  No mais profundo dos mares tua mão me cobriu
C                 G/B      Am              G          Am
 Por mais que eu fuja de tudo        tu me alcançarás
                       F             G
A tua Unção não me deixa, não me deixa nunca


Refrão:
C    G/B       Dm          Am           G
Adorai,  eu digo à minha alma, eu canto
C     G/B              Dm     Am           G
Aba Pai,  que quebra minhas correntes, clamo         
F     Am       F     Am               G
Adonai,       Adonai  tu és meu dono       (2x)


Solo:  Bb  F/A   Am  Em  Am  D/F#  G  D/F#  Em  A4  A   D   G4  G C  G/B

(  Am  Em  Am  G/B  C  G/B  Am  Em  Am  )
  • 1
  • 2
  • 3
  • 4
  • 5
  • 6
  • 7
  • 8
  • 9
  • 10
  • 11
  • 12

    0 comentários

      mostrar mais comentários

      Conseguiu tocar?

      18tocaram0ainda não

      Grave um vídeo tocando Adorai-adonai e mande pra gente!

      00:00 / 00:00
      outros vídeos desta música
      repetirqualidadeautomática
      • automática
      Outro vídeos desta música
        00:00 / 00:00
        automática
        • automática
        Acordes para:violão e guitarra
        dificuldadeexibiçõescontribuições
        1 versão de Guitar Proformatodownloadscontribuição
        fecharplay/pause subir/descer velocidade
          acordes
          fechar
          OK
          Feedback