Cifra Club

Dançar Na Chuva

Fernandinho

Cifra: Versão 8
exibições 5.997
Tom: E
INTRO
                     Riff 1

E|------------------------------------------------|
B|------------------------------------------------|
G|-----5-5-----7---5------------------------------|
D|-----5-5-----7---5---6-5-3-5-6-5-3--------------|   8x
A|---------------------6-5-3-5-6-5-3--------------|
E|------------------------------------------------|


 D5
Novo caminho para andar,um novo sonho pra sonhar
                       G5
O deserto não é o meu lugar
D5
Uma nova vida Ele prometeu a todo aquele que nEle crê
                          G5
O mar a nossa frente se abrirá

REFRÃO

D5             A5                      B5                    A5
Nova criatura sou o velho homem já morreu vou dançar naquela terra que
         G5      F#5    E5   A5
Ele prometeu eu vou eu vou

D5             A5                     B5                     A5
Nova criatura sou o velho homem já morreu vou dançar naquela terra que
         G5      F#5    E5   A5
Ele prometeu eu vou eu vou

Eu vou dançar na chuvaaaaa!!!!!!

   Riff 2


E|--------------------------------------------------------------|
B|--------------------------------------------------------------|
G|--------------------------------------------------------------|
D|--------------------------------------------------------------|  2x
A|--2-2--4-5---2-2--4-5--2-2--4-5—2-2-2---2-2--4-5---2-2--4-5--2|
E|--2-2--4-5---2-2--4-5--2-2--4-5-2-2-2---2-2--4-5---2-2--4-5--2|


                       "volta para intro"

     Riff 3 "baixo”

E|--------------------------------------------------------------|
B|--------------------------------------------------------------|
G|--------------------------------------------------------------|
D|---------------7-9--------------------------------------------|  6x
A|-----7-9------------------------------------------------------|
E|-7-7------7-7-------------------------------------------------|


E|--------------------------------------------------------------|
B|--------------------------------------------------------------|
G|--------------------------------------------------------------|
D|--9-9---9--8-8---8--7-7---7--6-6------------------------------|  9x
A|------9--------9--------9--------10-9-------------------------|
E|--------------------------------------------------------------|

"essa riff fica no fundo enquanto o fernandinho fica falando dance, dance, dance...”

e no fim quando ele grita dance, dance, dance!!!!  Fica em B5

Riff 2


E|--------------------------------------------------------------|
B|--------------------------------------------------------------|
G|--------------------------------------------------------------|
D|--------------------------------------------------------------|  2x
A|--2-2--4-5---2-2--4-5--2-2--4-5—2-2-2---2-2--4-5---2-2--4-5---|
E|--2-2--4-5---2-2--4-5--2-2--4-5-2-2-2---2-2--4-5---2-2--4-5---|


                 D5     "acaba esse riff com D5 "
E|--------------------------------------------------------------|
B|--------------------------------------------------------------|
G|--------------7-----------------------------------------------|
D|--------------7-----------------------------------------------|  2x
A|--------------5-----------------------------------------------|
E|--------------------------------------------------------------|


REFRÃO

D5             A5                      B5                    A5
Nova criatura sou o velho homem já morreu vou dançar naquela terra que
         G5      F#5     E5   A5
Ele prometeu eu vou eu vou

D5             A5                      B5                    A5
Nova criatura sou o velho homem ja morreu vou dançar naquela terra que
         G5      F#5     E5   A5
Ele prometeu eu vou eu vou
                         B5     (no final)
Eu vou dançar na chuvaaaaa!!!!!!
Acordes para:
    Colaboração e revisão:
    • arlison ivan
    • Caio Costa

    0 comentários

      mostrar mais comentários

      Conseguiu tocar?

      2tocaram0ainda não

      Grave um vídeo tocando Dançar Na Chuva e mande pra gente!

      00:00 / 00:00
      outros vídeos desta música
      repetirqualidadeautomática
      Outro vídeos desta música
        00:00 / 00:00
        automática
        OK