Cifra Club

Eu Irei

Filhos do Homem

Cifra: Principal (violão e guitarra)
tom: D
Eu Irei
Filhos do Homem

Introdução
     D            A             Bm           G
E|------------------------------------------------------------------|
B|------7--5----------3---5------3/5-3------------------------------|
G|--2/7------7---2-2h4-------7-6---------4-----2h4-4----------------|
D|------------------------------------------2H4---------------------|
A|------------------------------------------------------------------|
E|------------------------------------------------------------------|

     D            A             Bm           G
E|--------------------------------------------3-2---------------|
B|------7--5---------3---5------3/5-3--------3---3--------------|
G|--2/7------7--2-2h4-------7-6--------4--3h4-------------------|
D|--------------------------------------------------------------|
A|--------------------------------------------------------------|
E|--------------------------------------------------------------|

D                     A
Fala-me e eu ouvirei, chama-me e responderei
    Bm           G
Envia-me e eu irei
  D                      A
Custe o que custar irei, custe a minha vida eu sei
    Bm           G
Envia-me e eu irei
     Bm         F#m
E eu irei,e eu irei
       G                     A
Pra onde me enviares, pra onde me enviares

            D               A
     |Qualquer tempo, qualquer lugar
           Bm            G
     |Todo tempo, tu és meu lar
          D               A
  2x |Qualquer tempo, qualquer lugar
          Bm            G
     |Em todo tempo, tu és meu lar

tu és meu lar

Solo
    D            A             Bm           G
E|----------------------------------------------------------------|
B|------7--5---------3---5------3/5-3--------------3-2----3\------|
G|--2/7------7-2-2h4-------7-6--------4-----2h4-4------4----------|
D|--------------------------------------2H4-----------------------|
A|----------------------------------------------------------------|
E|----------------------------------------------------------------|

D                     A
Fala-me e eu ouvirei, chama-me e responderei
    Bm           G
Envia-me e eu irei
  D                      A
Custe o que custar irei, custe a minha vida eu sei
    Bm           G
Envia-me e eu irei
     Bm         F#m
E eu irei,e eu irei
       G                     A
Pra onde me enviares, pra onde me enviares

          D               A
     |Qualquer tempo, qualquer lugar
           Bm            G
     |E Todo tempo, tu és meu lar
          D               A
  2x |Qualquer tempo, qualquer lugar
            Bm            G
     |todo tempo, tu és meu lar
           D
tu és meu lar

Bm
  Pra onde me enviares

 E               B
Qualquer tempo, qualquer lugar
   C#m          A
Todo tempo, tu és meu lar
 E               B
Qualquer tempo, qualquer lugar
 C#m            A
todo tempo, tu és meu lar
           E B C#m      A
tu és meu lar, tu és meu lar
           E B C#m      A     E
tu és meu lar, tu és meu lar
00:00 / 00:00
Outros vídeos desta música
Repetir
Outros vídeos desta música
Composição de Cris Batiston
Colaboração e revisão:
  • Edimar
2.112 exibições
    • ½ Tom
    • A
    • Bb
    • B
    • C
    • Db
    • D
    • Eb
    • E
    • F
    • F#
    • G
    • Ab
  • Adicionar à lista

    0 comentários

    Ver todos os comentários

    Entre para oCifra Club PRO

    Tenha acesso a benefícios exclusivos no App e no Site

    • Chega de anúncios

    • Prioridade de compra em lançamentos

    • Mais recursos no app do Afinador

    • Atendimento Prioritário

    • Descontos nos produtos Cifra Club

    • Ajude a produzir mais conteúdo

    00:00 / 00:00

    Cifra Club Pro

    Aproveite o Cifra Club com benefícios exclusivos e sem anúncios
    Cifra Club Pro
    Aproveite o Cifra Club com benefícios exclusivos e sem anúncios
    OK