Cifra Club

The Ballad Of

Forgotten Boys

Cifra: Principal (violão e guitarra)
tom: E
FORGOTTEN BOYS AFINA AS GUITARRAS MEIO TOM ABAIXO
Barra (/) = bend ascendente e hammer-on  ;Barra (\) = bend descendente e pull-off 
Intro (Chuck):

C#m
e|--9-9---9----------7---9-9----9-9-9---9--------7---9-----------
B|--9-9--10---------7---9-9----9-9-9--10--------7---9-----------
G|--9-9---9-----7/8-8---9-9----9-9-9---9----7/8-8---9----------
D|---------------------------------------------------------------------
A|---------------------------------------------------------------------
E|---------------------------------------------------------------------

Riff / base (gustavo):
               C#m  A    B   C#m
e|---------------------------------------
B|--------------------------------------
G|--------------6---2----4-4---6-----
D|--------------6---2----4-4---6-----
A|--------2/4---4---0----2-2---4-----
E|---2/4--------------------------------

Solo (Chuck):
          C#m        A               B             C#m
e|------------------------------------------------------------------------------------------  
B|-----12---12---------------------------12--------------------------------------
G|---11/13-13-13\11--9~-------9---11/13------13\11---9----------9----11------
D|-------------------------11------------------------------11------------------
A|-------------------------------------------------------------------------------------------
E|-------------------------------------------------------------------------------------------
       C#m           A              B               C#m
e|-------------------------------------------------------------------------------------  
B|-----12---12----------------------------12----------------------------------
G|---11/13-13-13\11---9~-------9---11/13------13\11---9--------------------
D|------------------------11--------------------------------------------------
A|-------------------------------------------------------------------------------------
E|--------------------------------------------------------------------------------------
               C#m    A      B             C#m                     A           B    C#m
e|--------------------------------12---------------------------------------------------
B|------9-12-12/14-12-9-12-12/14------14\12--9---------------12-----------------------------
G|--11--------------------------------------------11-9-11/13-----13\11--9-----9-----9-9--
D|-------------------------------------------------------------------------11---11----------
A|-------------------------------------------------------------------------------------------------
E|-------------------------------------------------------------------------------------------------







C#m        A       B C#m
Jesus was born in 1979
C#m          A       B        C#m 
The kind of guy had something nice
C#m      A                B         C#m
He found out he'd like to kiss some girls
C#m          A    B           C#m
That's when Devil entered his world
C#m    A   B      C#m
Devil was 29 years old
C#m      A          B      C#m
When she found this pretty boy
C#m         A         B          C#m   
Things went colloured inside her world
     C#m       A           B      C#m
'cos Jesus was all she was looking for
E                 G#             C#m 
Jesus promised to go to Devils's place
    E                   G#               C#m (Riff 2)
He never thought he was going out of his way
 E                    B                
24 years old, pretty young faced though
       C#m         A         B         E
He was really near to finally fall in love

Riff 2:
        C#m                 E           B          C#m
e|------------------------------------------------------------------------------------------
B|------------------------------------------------------------------------------------------
G|---------------------------------------------------6--------------------------------
D|--------------------------9--9---------4--4--------6-----------------------------------
A|----11--11--9--9--7--7----7--7---9-7---2--2--4--6--4------------------------------------
E|------------------------9----------------------------------------------------------------

She set the table up waiting for him

She's never thought good on bad was a sin

She'd promise him a weding ring

But suddenly the phone has started to sing

"hello there, this is from the Police

I'm sorry but we have some bad news"

That's when Devil started to cry

From that moment on she hoped she dies

Jesus got lost on his way to Devil's home

He was trying to find out what was going wrong

His car went out of control

He crashed agaist a wall

He was really near to finally fall in love

Antes do solo:
                C#m  A  B C#m C#m  A  B C#m C#m  A  B C#m C#m  A   B  C#m
e|-------------------------------------------------------------------------------------------------
B|------------------------------------------------------------------------------------------------
G|------------------------------------------------------------------------------------------------
D|-------------------------------------------------------------------------------------------------
A|---------2/4~~~~~~---------------------------------------------------------------------------
E|----2/4-------------------------------------------------2/3-----2/3\2--0-----
00:00 / 00:00
Outros vídeos desta música
Repetir
Outros vídeos desta música
Composição de Chuck Hipolitho
Colaboração e revisão:
  • francisco quirino
4.450 exibições
    • ½ Tom
    • A
    • Bb
    • B
    • C
    • Db
    • D
    • Eb
    • E
    • F
    • F#
    • G
    • Ab
  • Adicionar à lista

    0 comentários

    Ver todos os comentários

    Entre para oCifra Club PRO

    Tenha acesso a benefícios exclusivos no App e no Site

    • Chega de anúncios

    • Prioridade de compra em lançamentos

    • Mais recursos no app do Afinador

    • Atendimento Prioritário

    • Descontos nos produtos Cifra Club

    • Ajude a produzir mais conteúdo

    00:00 / 00:00

    Cifra Club Pro

    Aproveite o Cifra Club com benefícios exclusivos e sem anúncios
    Cifra Club Pro
    Aproveite o Cifra Club com benefícios exclusivos e sem anúncios
    OK