Cifra Club

You See Bad Luck

Forgotten Boys

Cifra: Principal (violão e guitarra)
tom: D
intro:
D|-------------------------------3---
G|-------------------------------4---
A|---------------4678------------4---
E|-----22-45-66-------666666-----2---
      \                   /
       \                 /
                3x

verso:
G|--33---4-----6-----8-----
A|--33---4-----6-----8----- 2x
E|--11---2-----4-----6-----
        \           /
         \         /
             4x

refrão:
D|-----6----------------
G|-----6-----6-----8----
A|-----4-----6-----8----   4x
E|-----------4-----6----

intro

verso

refão

intro

termina com G|-----8-8-8-8--
            A|-----8-8-8-8--
            E|-----6-6-6-6--
00:00 / 00:00
Outros vídeos desta música
Repetir
Outros vídeos desta música
Composição de Forgotten Boys
Colaboração e revisão:
  • andre marques
1.951 exibições
    • ½ Tom
    • A
    • Bb
    • B
    • C
    • Db
    • D
    • Eb
    • E
    • F
    • F#
    • G
    • Ab
  • Adicionar à lista

    0 comentários

    Ver todos os comentários

    Entre para oCifra Club PRO

    Tenha acesso a benefícios exclusivos no App e no Site

    • Chega de anúncios

    • Prioridade de compra em lançamentos

    • Mais recursos no app do Afinador

    • Atendimento Prioritário

    • Descontos nos produtos Cifra Club

    • Ajude a produzir mais conteúdo

    00:00 / 00:00

    Cifra Club Pro

    Aproveite o Cifra Club com benefícios exclusivos e sem anúncios
    Cifra Club Pro
    Aproveite o Cifra Club com benefícios exclusivos e sem anúncios
    OK