Cifra Club

Restrição Sentimental (part. Marília Mendonça)

Gustavo Mioto

Cifra: Principal (violão e guitarra)
tom: G#m
[Primeira Parte] 

     E                          F#
Recomendam cortar o que te faz mal
                       D#m7
Feito quem tem pressão alta
                    G#m
E tem que evitar o sal

    F# E                               F#
Me disseram que eu tenho paixões excessivas
                        D#m7
Chocolate, álcool e cafeína
                        G#m        F# 
E o maior delas não tá nessa lista
   E  F#   
Você  
                            G#m  F#
O vício mais difícil de perder

[Refrão] 

              E             F#    
Só não chega perto que eu aceito
            D#m7        G#m
Eu tô de regime do seu beijo
             E            F#    
Gostar de você só me faz mal
              D#m7                     G#m
A partir de agora é restrição sentimental

              E             F#    
Só não chega perto que eu aceito
            D#m7        G#m
Eu tô de regime do seu beijo
             E            F#    
Gostar de você só me faz mal
              D#m7                     G#m
A partir de agora é restrição sentimental

   E  F#   
Você  
                              G#m  F#
É o vício mais difícil de perder

[Solo] D#m  E  G#m  F#
       D#m  E  

E|----------------------------------------------------|
B|-----6-7-7----/9-9-9/7-7-7/5-5-5/4-4-4/2-2-2/4-4-4--|
G|---8------------------------------------------------|
D|-8--------------------------------------------------|
A|----------------------------------------------------|
E|----------------------------------------------------|

E|----------------------------------------------------|
B|-7---------------6-7-7------9-9-9/7-7-7/12---12~----|
G|---/6~--------8-------------------------------------|
D|------------8---------------------------------------|
A|----------------------------------------------------|
E|----------------------------------------------------|

[Primeira Parte] 

     E                          F#
Recomendam cortar o que te faz mal
                       D#m7
Feito quem tem pressão alta
                    G#m
E tem que evitar o sal

    F# E                               F#
Me disseram que eu tenho paixões excessivas
                        D#m7
Chocolate, álcool e cafeína
                        G#m        F# 
E o maior delas não tá nessa lista
   E  F#   
Você  
                            G#m  F#
O vício mais difícil de perder

[Refrão] 

              E             F#    
Só não chega perto que eu aceito
            D#m7        G#m
Eu tô de regime do seu beijo
             E            F#    
Gostar de você só me faz mal
              D#m7                     G#m
A partir de agora é restrição sentimental

              E             F#    
Só não chega perto que eu aceito
            D#m7        G#m
Eu tô de regime do seu beijo
             E            F#    
Gostar de você só me faz mal
              D#m7                     G#m
A partir de agora é restrição sentimental

   E  F#   
Você  
                              G#m  F#
É o vício mais difícil de perder

[Final] D#m  E  G#m 

E|----------------------------------------------------|
B|-----6-7-7----/9-9-9/7-7-7/5-5-5/4-4-4/2-2-2/4-4-4~-|
G|---8------------------------------------------------|
D|-8--------------------------------------------------|
A|----------------------------------------------------|
E|----------------------------------------------------|
00:00 / 00:00
Outros vídeos desta música
Repetir
Outros vídeos desta música
Composição de Day / Gustavo Mioto / Lara
Colaboração e revisão:
  • Getúlio Vasconcelos
5.281 exibições
    • ½ Tom
    • Am
    • Bbm
    • Bm
    • Cm
    • C#m
    • Dm
    • Ebm
    • Em
    • Fm
    • F#m
    • Gm
    • G#m
  • Adicionar à lista

    0 comentários

    Ver todos os comentários

    Conseguiu tocar?

    2 Tocaram 0 Ainda não

    Grave um vídeo tocando Restrição Sentimental (part. Marília Mendonça) e nos envie!

    Entre para oCifra Club PRO

    Tenha acesso a benefícios exclusivos no App e no Site

    • Chega de anúncios

    • Prioridade de compra em lançamentos

    • Mais recursos no app do Afinador

    • Atendimento Prioritário

    • Descontos nos produtos Cifra Club

    • Ajude a produzir mais conteúdo

    00:00 / 00:00

    Cifra Club Pro

    Aproveite o Cifra Club com benefícios exclusivos e sem anúncios
    Cifra Club Pro
    Aproveite o Cifra Club com benefícios exclusivos e sem anúncios
    OK