Cifra Club

Apelido Carinhoso

Gusttavo Lima

Cifra: Versão 3 (violão e guitarra)
exibições 46.230
Tom: Bb (forma dos acordes no tom de A) Capotraste na 1ª casa
[Intro]  Bm  D  A  E

   F#m
       Amor, não é segredo entre a gente
E|-------------------------------------------------------|
B|---------10-------10-------10-------10p9---------------|
G|------11----11-------11-------11---------11-9----------|
D|---11----------11-------11-------11--------------------|
A|-9-----------------------------------------------------|
E|-------------------------------------------------------|

    D9
      Que o meu término é recente
E|----------12-------12-------12-------12------------------|
B|-------10----10-------10-------10-------10---------------|
G|----11----------11-------11-------11-------11------------|
D|-12------------------------------------------------------|
A|---------------------------------------------------------|
E|---------------------------------------------------------|

   E
    E você tá arrumando o que ela revirou
E|------------------------------------------------|
B|---------------------12-17~---------------------|
G|-------------9-11/13----------------------------|
D|-----------9------------------------------------|
A|-9----9h11--------------------------------------|
E|---12-------------------------------------------|
        
        F#m
E|-17-------16-------14-------------------------------------|
B|-14-14-------14-------14----17--------14h15p14--12--------|
G|-14----14-------14-------14----14-------------------------|
D|----------------------------------16--14h16p14--12--------|
A|-9--------------------------------------------------------|
E|----------------------------------------------------------|

   F#m
      E esse sentimento pendente
E|--------------------------------------------------------|
B|-10-------10--------10--------10------10p9--------------|
G|-11--11-------11--------11-------11--------11-9---------|
D|-11-----11-------11--------11-------11------------------|
A|-9------------------------------------------------------|
E|--------------------------------------------------------|

    D9
      Que insiste em bagunçar a minha
E|----------12-------12-------12---------------------------|
B|-------10----10-------10-------10------------------------|
G|----11----------11-------11-------11-11p9----------------|
D|-12---------------------------------------12-11----------|
A|---------------------------------------------------------|
E|---------------------------------------------------------|

   E
  Mente Vai passar um dia, mas ainda não passou

E|--------------------------------------------------|
B|--------12-----12-----12-----12/14\12--10p9-------|
G|------9----9------9------9------------------------|
D|----9--------9------9------9----------------------|
A|--------------------------------------------------|
E|-12-----------------------------------------------|
            
  F#m
E|---------------------------9----------------------|
B|---------10-------10-------10---------------------|
G|------11----11-------11----11---------------------|
D|---11----------11----------11---------------------|
A|-9-------------------------9----------------------|
E|--------------------------------------------------|

Bm
   Eu sei que você poderia ter 
      D
Escolhido alguém menos complicado
A
  Que não tivesse no presente 
        E
Uma pessoa do passado

Bm
   Aceitar essa situação 
       D
É uma forma de amor
A
  Mas eu preciso que você 
         E
Me faça só mais um favor

Bm                            A/C#  D
   Ainda não me chame de meu nego
D                          A
  Ainda não me chame de bebê
Porque era assim que ela me chamava       
E
  E um apelido carinhoso 
                          Bm
É o mais difícil de esquecer

( Bm  D  A  E )

Bm
   Eu sei que você poderia ter 
      D
Escolhido alguém menos complicado
A
  Que não tivesse no presente 
        E
Uma pessoa do passado

Bm
   Aceitar essa situação 
       D
É uma forma de amor
A
  Mas eu preciso que você 
         E
Me faça só mais um favor

Bm                            A/C#  D
   Ainda não me chame de meu nego
D                          A
  Ainda não me chame de bebê
Porque era assim que ela me chamava       
E
  E um apelido carinhoso 
                          Bm
É o mais difícil de esquecer
Bm                            A/C#  D
   Ainda não me chame de meu nego
D                          A
  Ainda não me chame de bebê
Porque era assim que ela me chamava       
E
  E um apelido carinhoso 
                          Bm
É o mais difícil de esquecer

    Bm7                    D
E|-----------------------------------10-----------------|
B|-14-15-14-15-14-15-14-15-14-15-14--10-----------------|
G|-14-14-14-14-14-14-14-14-14-14-14--11-----------------|
D|-14-16-14-16-14-16-14-16-14-16-14--12-----------------|
A|-----------------------------------12-----------------|
E|-----------------------------------10-----------------|
Acordes para:
    Colaboração e revisão:
    • Liniker Binotto
    • lairton araujo
    • Danilo Barbosa

    0 comentários

    mostrar mais comentários

    Conseguiu tocar?

    3 tocaram 3 ainda não

    Grave um vídeo tocando Apelido Carinhoso e mande pra gente!

    00:00 / 00:00
    outros vídeos desta música
    repetir qualidade Automático
    Outro vídeos desta música
    00:00 / 00:00
    Automático
    Capítulos
    • Tocando a música
    • Apresentação / Equipamentos
    • Acordes da música
    • Ritmo da música
    • Encerramento
    OK