Cifra Club

We Damn The Night

Helloween

Tab de baixo: Principal
(Intro)
  Moderately Q=125
 4/4
  Gtr I
  E E Q  H      H    E E E E   E E Q  H      H    E E E E
|-------------|--------------|-------------|--------------|
|-------------|--------------|-------------|--------------|
|-------------|--------6-5---|-------------|--------6-5---|
|-0-0---------|------8-------|-0-0---------|------8-------|


  S S S S S S S S S S S S S S S S   S S S S S S S S E E E E
|---------------------------------|-------------------------|
|---------------------------------|-------------------------|
|-8p7---------8p7---------8p7-----|-8p7---------8p7---6-5---|
|-----0-0-0-0-----0-0-0-0-----0-0-|-----0-0-0-0-----8-------|


  S S S S S S S S S S S S S S S S   S S S S S S S S E E E E
|---------------------------------|-------------------------||
|---------------------------------|-------------------------||
|-8p7---------8p7---------8p7-----|-8p7---------8p7---6-5---||
|-----0-0-0-0-----0-0-0-0-----0-0-|-----0-0-0-0-----8-------||


   1st and 2nd Verses
    S S S S S S S S S S S S S S S S   S S S S S S S S S S S S S S S S
||----------------------------------|---------------------------------|
||o---------------------------------|---------------------------------|
||o-3-3-3-3-3-3-3-3-3-3-3-3-3-3-3-3-|-3-3-3-3-3-3-3-3-3-3-3-3-3-3-3-3-|
||----------------------------------|---------------------------------|


  S S S S S S S S S S S S S S S S   S S S S S S S S S S S S S S S S
|---------------------------------|------------------------------------|
|---------------------------------|------------------------------------|
|---------------------------------|------------------------------------|
|-0-0-0-0-0-0-0-0-0-0-0-0-0-0-0-0-|-0-0-0-0-0-0-0-0-0-0-0-0-0-0-0-0----|


  S S S S S S S S S S S S S S S S   S S S S S S S S S S S S S S S S
|---------------------------------|---------------------------------|
|---------------------------------|---------------------------------|
|-3-3-3-3-3-3-3-3-3-3-3-3-3-3-3-3-|-3-3-3-3-3-3-3-3-3-3-3-3-3-3-3-3-|
|---------------------------------|---------------------------------|


  S S S S S S S S S S S S S S S S   S S S S S S S S S S S S S S S S
|---------------------------------|------------------------------------|
|---------------------------------|------------------------------------|
|---------------------------------|------------------------------------|
|-0-0-0-0-0-0-0-0-0-0-0-0-0-0-0-0-|-0-0-0-0-0-0-0-0-0-0-0-0-0-0-0-0----|


  S S S S S S S S S S S S S S S S   S S S S S S S S S S S S S S S S
|---------------------------------|---------------------------------|
|---------------------------------|---------------------------------|
|---------------------------------|---------------------------------|
|-5-5-5-5-5-5-5-5-5-5-5-5-5-5-5-5-|-5-5-5-5-5-5-5-5-5-5-5-5-5-5-5-5-|


  S S S S S S S S S S S S S S S S   E. S +E  E Q  Q
|---------------------------------|------------------||
|---------------------------------|------------------||
|---------------------------------|-5----------------||
|-7-7-7-7-7-7-7-7-7-7-7-7-7-7-7-7-|----8-(8)-7-5--3--||


 (Chorus)
  $
  S S S S S S S S S S S S S S S S   S S S S S S S S S S S S S S S S
|---------------------------------|---------------------------------|
|---------------------------------|---------------------------------|
|---------------------------------|-5-5-5-5-5-5-5-5-5-5-5-5-5-5-5-5-|
|-0-0-0-0-0-0-0-0-0-0-0-0-0-0-0-0-|---------------------------------|


  S S S S S S S S S S S S S S S S   S S S S S S S S S S S S S S S S
|---------------------------------|------------------------------------|
|---------------------------------|------------------------------------|
|-3-3-3-3-3-3-3-3-3-3-3-3-3-3-3-3-|-5-5-5-5-5-5-5-5-5-5-5-5-5-5-5-5----|
|---------------------------------|------------------------------------|


  S S S S S S S S S S S S S S S S   S S S S S S S S S S S S S S S S
|---------------------------------|---------------------------------|
|---------------------------------|---------------------------------|
|---------------------------------|-2-2-2-2-2-2-2-2-2-2-2-2-2-2-2-2-|
|-3-3-3-3-3-3-3-3-3-3-3-3-3-3-3-3-|---------------------------------|


  S S S S S S S S S S S S S S S S   S S S S S S S S Q  Q
|---------------------------------|------------------------|
|---------------------------------|------------------------|
|-3-3-3-3-3-3-3-3-3-3-3-3-3-3-3-3-|-5-5-5-5-5-5-5-5--------|
|---------------------------------|-----------------3--2---|


  S S S S S S S S S S S S S S S S   S S S S S S S S S S S S S S S S
|---------------------------------|---------------------------------|
|---------------------------------|---------------------------------|
|---------------------------------|-5-5-5-5-5-5-5-5-5-5-5-5-5-5-5-5-|
|-3-3-3-3-3-3-3-3-3-3-3-3-3-3-3-3-|---------------------------------|


  S S S S S S S S S S S S S S S S   S S S S S S S S S S S S S S S S
|---------------------------------|------------------------------------|
|---------------------------------|------------------------------------|
|-3-3-3-3-3-3-3-3-3-3-3-3-3-3-3-3-|-5-5-5-5-5-5-5-5-5-5-5-5-5-5-5-5----|
|---------------------------------|------------------------------------|


  S S S S S S S S S S S S S S S S
|---------------------------------|
|---------------------------------|
|---------------------------------|
|-3-3-3-3-3-3-3-3-3-3-3-3-3-3-3-3-|


                                    1.
                             To Coda
  S S S S S S S S S S S S S S S S    S S S S S S S S  E. S +E  E
|---------------------------------|------------------------------||
|---------------------------------|------------------------------||
|-2-2-2-2-2-2-2-2-2-2-2-2-2-2-2-2-|--5-5-5-5-5-5-5-5-/9--7-(7)-5-||
|---------------------------------|------------------------------||


  S S S S S S S S S S S S S S S S   S S S S S S S S E E E E
|---------------------------------|-------------------------|
|---------------------------------|-------------------------|
|-8p7---------8p7---------8p7-----|-8p7---------8p7---6-5---|
|-----0-0-0-0-----0-0-0-0-----0-0-|-----0-0-0-0-----8-------|


  S S S S S S S S S S S S S S S S   S S S S S S S S E E E E
|---------------------------------|--------------------------||
|---------------------------------|-------------------------o||
|-8p7---------8p7---------8p7-----|-8p7---------8p7---6-5---o||
|-----0-0-0-0-----0-0-0-0-----0-0-|-----0-0-0-0-----8--------||


  2.
  S S S S S S S S  E. S +E  E    E E Q  H
|-----------------------------||-------------|
|-----------------------------||-------------|
|-5-5-5-5-5-5-5-5-/9--7-(7)-5-||-------------|
|-----------------------------||-0-0---------|


                                        |-3-|
  E E Q  H      E E Q  H      E E Q  Q  S S S E
|-------------|-------------|-------------------|
|-------------|-------------|-------------------|
|-------------|-------------|-----------7-7-7-7-|
|-0-0---------|-0-0---------|-0-0---------------|


                                                      |-3-|
  E E Q  H      E E Q  H      E E Q  H      E E Q  Q  S S S E
|-------------|-------------|-------------|---------------------|
|-------------|-------------|-------------|---------------------|
|-------------|-------------|-------------|-----------7-7-7-7---|
|-0-0---------|-0-0---------|-0-0---------|-0-0-----------------|


  |----6----|   |-3-| |----6----|       |----6----|   |-3-| |----6----|
  S S S S S S E S S S S S S S S S E E   S S S S S S E S S S S S S S S S E E
|-------------------------------------|-------------------------------------|
|-------------------------------------|-------------------------------------|
|-5-5-5-5-5-5-5-5-5-5-5-5-5-5-5-5-5-5-|-0-0-0-0-0-0-0-0-0-0-0-0-0-0-0-0-0-0-|
|-------------------------------------|-------------------------------------|


  |----6----|   |-3-| |----6----|
  S S S S S S E S S S S S S S S S E E
|----------------------------------------|
|----------------------------------------|
|----------------------------------------|
|-1-1-1-1-1-1-1-1-1-1-1-1-1-1-1-1-1-1----|


  |----6----|   |-3-| |----6----|       |----6----|   |-3-| |-3-|   |-3-|
  S S S S S S E S S S S S S S S S E E   S S S S S S E S S S S S S E S S S E
|-------------------------------------|-------------------------------------|
|-------------------------------------|-------------------------------------|
|-------------------------------------|-5-5-5-5-5-5-5-5-5-5-5-5-5-5-5-5-5-5-|
|-3-3-3-3-3-3-3-3-3-3-3-3-3-3-3-3-3-3-|-------------------------------------|


  |----6----|   |-3-| |-3-|   |-3-|
  S S S S S S E S S S S S S E S S S E
|----------------------------------------|
|----------------------------------------|
|-0-0-0-0-0-0-0-0-0-0-0-0-0-0-0-0-0-0----|
|----------------------------------------|


  |----6----|   |-3-| |-3-|   |-3-|
  S S S S S S E S S S S S S E S S S E   H    H
|-------------------------------------|-----------|
|-------------------------------------|-----------|
|-------------------------------------|-----------|
|-1-1-1-1-1-1-1-1-1-1-1-1-1-1-1-1-1-1-|-3----5----|


  (Interlude)
    S S S S S S S S S S S S S S S S   S S S S S S S S S S S S S S S S     4x
||----------------------------------|-------------------------------------||
||o---------------------------------|------------------------------------o||
||o---------------------------------|------------------------------------o||
||--3-3-3-3-3-3-5-5-5-5-5-5-7-7-7-7-|-2-2-2-2-2-2-2-2-5-5-5-5-5-5-5-5-----||


    S S S S Q   S S S S Q     S S S S Q   S S S S Q
||--------------------------|-------------------------|
||o-------------------------|-------------------------|
||o-------------------------|-------------------------|
||--0-0---0-3\--0-0---0-5\--|-0-0---0-6\--0-0---0-5\--|


  S S S S Q   S S S S Q     S S S S Q   S S S S Q
|-------------------------|---------------------------||
|-------------------------|--------------------------o||
|-------------------------|--------------------------o||
|-0-0---0-3\--0-0---0-5\--|-0-0---0-6\--0-0---0-1-----||


 Guitar Solo - M.Weikath
  E. S +E  E E. S +E  E   E. S +E  E E. S +E  E
|-----------------------|-----------------------|
|-----------------------|-----------------------|
|------------3--2-(2)---|-----------------------|
|-1--0-(0)-1----------3-|-1--0-(0)-1-3--5-(5)-7-|


  S S S S S S S S S S S S S S S S   S S S S S S S S S S S S S S S S
|---------------------------------|------------------------------------|
|---------------------------------|------------------------------------|
|---------------------------------|------------------------------------|
|-5-5-5-5-5-5-5-5-5-5-5-5-5-5-5-5-|-3-3-3-3-3-3-3-3-3-3-3-3-3-3-3-3----|


  E. S +E  E E. S +E  E   E. S +E  E E. S +E  E
|-----------------------|-----------------------|
|-----------------------|-----------------------|
|------------3--2-(2)---|-----------------------|
|-1--0-(0)-1----------3-|-1--0-(0)-1-3--5-(5)-7-|


  E. S +E  E E. S +E  E   E. S +E  E a E. S +E  E
|-----------------------|-------------------------||
|-----------------------|-------------------------||
|----7-(7)-5------------|-----------------5-(5)-7-||
|-0----------7--5-(5)-3-|-0--3-(3)-5-5s7----------||


  S S S S S S S S S S S S S S S S   S S S S S S S S E E E E
|---------------------------------|-------------------------|
|---------------------------------|-------------------------|
|-8p7---------8p7---------8p7-----|-8p7---------8p7---6-5---|
|-----0-0-0-0-----0-0-0-0-----0-0-|-----0-0-0-0-----8-------|


  S S S S S S S S S S S S S S S S   Q  Q  Q  Q
|---------------------------------|----------------||
|---------------------------------|----------------||
|-8p7---------8p7---------8p7-----|----------------||
|-----0-0-0-0-----0-0-0-0-----0-0-|-0--------x\----||


  S S S S S S S S S S S S S S S S   S S S S S S S S S S S S S S S S
|---------------------------------|---------------------------------|
|---------------------------------|---------------------------------|
|---------------------------------|-5-5-5-5-5-5-5-5-5-5-5-5-5-5-5-5-|
|-0-0-0-0-0-0-0-0-0-0-0-0-0-0-0-0-|---------------------------------|


  S S S S S S S S S S S S S S S S   S S S S S S S S S S S S S S S S
|---------------------------------|------------------------------------|
|---------------------------------|------------------------------------|
|-3-3-3-3-3-3-3-3-3-3-3-3-3-3-3-3-|-5-5-5-5-5-5-5-5-5-5-5-5-5-5-5-5----|
|---------------------------------|------------------------------------|


  S S S S S S S S S S S S S S S S   S S S S S S S S S S S S S S S S
|---------------------------------|---------------------------------|
|---------------------------------|---------------------------------|
|---------------------------------|-2-2-2-2-2-2-2-2-2-2-2-2-2-2-2-2-|
|-3-3-3-3-3-3-3-3-3-3-3-3-3-3-3-3-|---------------------------------|


                                             D.S. al Coda
  S S S S S S S S S S S S S S S S   S S S S S S S S Q  Q
|---------------------------------|------------------------||
|---------------------------------|------------------------||
|-3-3-3-3-3-3-3-3-3-3-3-3-3-3-3-3-|-5-5-5-5-5-5-5-5--------||
|---------------------------------|-----------------3--2---||


                                Outro
  &
  S S S S S S S S  E. S +E  E    S S S S S S S S S S S S S S S S
|-----------------------------||---------------------------------|
|-----------------------------||---------------------------------|
|-5-5-5-5-5-5-5-5-/9--7-(7)-5-||-8p7---------8p7---------8p7-----|
|-----------------------------||-----0-0-0-0-----0-0-0-0-----0-0-|


   S S S S S S  S S S S S S  S S S S    S  S S S S S  S  S S S S S  S  S S S
|------------------------------------|----------------------------------------|
|------------------------------------|----------------------------------------|
|-10p9---------10p9---------10p9-----|-13p12---------13p12---------13p12------|
|------0-0-0-0------0-0-0-0------0-0-|-------0-0-0-0-------0-0-0-0-------0-0--|


  Q  Q  E. S +E  E   H    H
|------------------|-----------*|
|------------------|-----------*|
|-5-----9--7-(7)-5-|-7---------*|
|----5-------------|-----------*|
Composição de Andi Deris
191 exibições

0 comentários

Ver todos os comentários

Conseguiu tocar?

0 Tocaram 0 Ainda não

Grave um vídeo tocando We Damn The Night e nos envie!

00:00 / 00:00
Outros vídeos desta música
Repetir Qualidade Automático
Outros vídeos desta música
00:00 / 00:00
Automático

Cifra Club Pro

Aproveite o Cifra Club com benefícios exclusivos e sem anúncios
Cifra Club Pro
Aproveite o Cifra Club com benefícios exclusivos e sem anúncios
OK