Cifra Club

Envy Me

Home Grown

Tab de baixo: Principal
Tabbed by: John

Tune down half a step

Intro 3x

E---------------------------------------------------------------------------------|
A----------------------------------------------------------2-2-2-2-2-0------------|
D----0-0-0-0-0-0-0-3--------------------0-0-0-0-0-0-0-3----------------4-2--------|
G----------------------0-0-0-0-0-0-0-3--------------------------------------------|

part B  (your J E A......)

E----------------------------------------------------------------------------------|
A------------------2-3-4-4-4-4-2-2-2-2-----------------2-3-2-2-2-2-2-0-------------|
D----0-0-0-0-0-4--------------------------0-0-0-0-0-4-------------------4-2--------|
G----------------------------------------------------------------------------------|

part B1  (It's useless for......)

E----------------------------------------------4-------4--------|
A----------0--0--4--4--2--2---------0--0--2------0h2------------|
D----0--0----------------------0--0-----------------------------|
G---------------------------------------------------------------|

part C			(unhappy with yourself...)		2x

E----------------------2-2-2-2--------------|-----------------------------------|
A----0-0-0-0-2-2-2-2-----------4-4-4-4-----|----0--0--0--0--2--2--2--2----------|
D--------------------------------------------|----------------------------------|
G--------------------------------------------|----------------------------------|

part C1							2x

E----------------------------------|
A----0--0--0--0--2--2--2--2--------|
D----------------------------------|
G----------------------------------|

part D  (why do girls....)

E-------------------------------------------------------------4------4-------|
A----------------------4-4-4-4-2-2-2-2---------------------2---0h2-----------|
D----0-0-0-0-----------------------------0-0-0-0-----------------------------|
G-------------2-2-2-2-----------------------------2-2-2-2--------------------|

repeat B1  1x

repeat C    2x

repeat C1  1x

part E    (please dont be...)          3x

E------------------------------|----------------------------------|
A------------------------------|----------------------------------|
D----------------5--5--7--7----|----5--5--5--5--7--7--7--7--------|
G----2--2--0--0----------------|----------------------------------|

part F  (starts out with bass solo)5x

E------------------------------------------------------------------------------|
A------------------------------------------------------------------------------|
D----0-0-0-0-0-0-0-3-------------------5-5-5-5-5-5-5-5-------------------------|
G----------------------0-0-0-0-4-4-4-4-------------------2-2-2-2-0-0-0-0-------|

part G

E------------------------------------------------------------------------------|
A----0-0-0-0-0-0-0-0-2-2-2-2-2-2-2-2-4-4-4-4-4-4-4-4-6-6-6-6-6-6-6-6-----------|
D------------------------------------------------------------------------------|
G------------------------------------------------------------------------------|

part G cont..

E----7-7-7-7-7-7-7-7-9-9-9-9-9-9-9-9-11-11-11-11-11-11-11-11-13-13-13----13----------|
A--------------------------------------------------------------------------11--------|
D------------------------------------------------------------------------------------|
G------------------------------------------------------------------------------------|

Outro

E----------------------------------------------|
A----------------------------------------------|
D----------------------------------------------|
G----2-0-2-0-2-0-2-0-2-0-2-0-2-0-2-0-2---------|
00:00 / 00:00
Outros vídeos desta música
Repetir
Outros vídeos desta música
Composição de John E. Trash
107 exibições

0 comentários

Ver todos os comentários

Entre para oCifra Club PRO

Tenha acesso a benefícios exclusivos no App e no Site

  • Chega de anúncios

  • Prioridade de compra em lançamentos

  • Mais recursos no app do Afinador

  • Atendimento Prioritário

  • Descontos nos produtos Cifra Club

  • Ajude a produzir mais conteúdo

00:00 / 00:00

Cifra Club Pro

Aproveite o Cifra Club com benefícios exclusivos e sem anúncios
Cifra Club Pro
Aproveite o Cifra Club com benefícios exclusivos e sem anúncios
OK