Cifra Club

Aprenda

Jeckyl and Hyde

Iced Earth

Tab de baixo: Principal
Check For Timing
                                                                 4x
F#||------------------|------------------|-----------------------||
C#||------------------|------------------|----------------------*||
G#||------------------|------------------|----------------------*||
D#||------------------|------------------|-----------------------||
                                      
----------------------|---------------------------|--------------------------|
----------------------|---------------------------|--------------------------|
----------------------|--2--2--2--2-2-2--2--2--2--|--2--2--2--2--2--2--5--5--|
----------------------|---------------------------|--------------------------|
                                                       
---------------------------|--------------------------|
---------------------------|--------------------------|
--2--2--2--2-2-2--2--2--2--|--2--2--2--2--2--2--------|
---------------------------|--------------------3--2--|
                                                       
---------------------------|--------------------------|
---------------------------|--------------------------|
---------------------------|--------------------3--3--|
--1--1--1--1-1-1--1--1--1--|--1--1--1--1--1--1--------|
                                                       
---------------------------|--------------------------|
---------------------------|--------------------------|
---------------------------|--------------------3--3--|
--1--1--1--1-1-1--1--1--1--|--1--1--1--1--1--1--------|
                                                   
---------------------------|--------------------------|
---------------------------|--------------------------|
--2--2--2--2-2-2--2--2--2--|--2--2--2--2--2--2--5--5--|
---------------------------|--------------------------|
                                                       
---------------------------|--------------------------|
---------------------------|--------------------------|
--2--2--2--2-2-2--2--2--2--|--2--2--2--2--2--2--------|
---------------------------|--------------------3--2--|
                                               
---------------------------|--------------------------|
---------------------------|--------------------------|
---------------------------|--------------------3--3--|
--1--1--1--1-1-1--1--1--1--|--1--1--1--1--1--1--------|
                                                       
---------------------------|--------------------------|
---------------------------|--------------------------|
---------------------------|--------------------3--3--|
--1--1--1--1-1-1--1--1--1--|--1--1--1--1--1--1--------|
                                                       
---------------------------|--------------------------|
---------------------------|--------------------------|
--2--2--2--2-2-2--2--2--2--|--2--2--2--2--2--2--5--5--|
---------------------------|--------------------------|
                                                       
---------------------------|--------------------------|
---------------------------|--------------------------|
--2--2--2--2-2-2--2--2--2--|--2--2--2--2--2--2--------|
---------------------------|--------------------3--2--|
                                                   
---------------------------|--------------------------|
---------------------------|--------------------------|
---------------------------|--------------------3--3--|
--1--1--1--1-1-1--1--1--1--|--1--1--1--1--1--1--------|
                                                       
---------------------------|--------------------------|
---------------------------|--------------------------|
---------------------------|--------------------3--3--|
--1--1--1--1-1-1--1--1--1--|--1--1--1--1--1--1--------|
                                                        
|---------------------------|--------------------------|
|*--------------------------|--------------------------|
|*--2--2--2--2--2--2--2--2--|--2--2--2--2--2--2--2--2--|
|---------------------------|--------------------------|
                                                  
--------------------------|--------------------------|
--------------------------|--------------------------|
--------------------------|--------------------------|
--1--1--1--1--1--1--1--1--|--1--1--1--1--1--1--1--1--|
                                                    
--------------------------|--------------------------|
--------------------------|--------------------------|
--2--2--2--2--2--2--2--2--|--2--2--2--2--2--2--2--2--|
--------------------------|--------------------------|
                                                   
--------------------------|---------------------------||
--------------------------|--------------------------*||
--5--5--5--5--5--5--5--5--|--3--3--3--3--3--3--3--3--*||
--------------------------|---------------------------||
                                                   
----------------------------|--------------------------|
*---------------------------|--------------------------|
*--2--2--2--2-2-2--2--2--2--|--2--2--2--2--2--2--5--5--|
----------------------------|--------------------------|
                                                     
---------------------------|--------------------------|
---------------------------|--------------------------|
--2--2--2--2-2-2--2--2--2--|--2--2--2--2--2--2--------|
---------------------------|--------------------3--2--|
                                                  
---------------------------|--------------------------|
---------------------------|--------------------------|
---------------------------|--------------------3--3--|
--1--1--1--1-1-1--1--1--1--|--1--1--1--1--1--1--------|
                                                         
---------------------------|---------------------------||
---------------------------|--------------------------*||
---------------------------|--------------------3--3--*||
--1--1--1--1-1-1--1--1--1--|--1--1--1--1--1--1---------||
                                                  
---------------------------|--------------------------|
*--------------------------|--------------------------|
*--2--2--2--2--2--2--2--2--|--2--2--2--2--2--2--2--2--|
---------------------------|--------------------------|
                                                    
--------------------------|--------------------------|
--------------------------|--------------------------|
--------------------------|--------------------------|
--1--1--1--1--1--1--1--1--|--1--1--1--1--1--1--1--1--|
                                                   
--------------------------|--------------------------|
--------------------------|--------------------------|
--2--2--2--2--2--2--2--2--|--2--2--2--2--2--2--2--2--|
--------------------------|--------------------------|
                                                                        
--------------------------|---------------------------||-------------------|
--------------------------|--------------------------*||-------------------|
--5--5--5--5--5--5--5--5--|--3--3--3--3--3--3--3--3--*||--2----------------|
--------------------------|---------------------------||-------------------|
                                                          
------------------|------------------|----------------------|
------------------|------------------|----------------------|
------------------|------------------|----------------------|
------------------|------------------|----------------------|
                                                                  
--------------------|---------------------|----------------------|
--------------------|---------------------|----------------------|
--3/---9------------|----------5--4--3----|----------------------|
--------------------|---------------------|----------------------|
                                                                       
-----7--11h-12h-11/-------|--------------------|----------------------|
--9-----------------------|------9/---3--------|----------------------|
--------------------------|--------------------|----------------------|
--------------------------|--------------------|----------------------|
                                                                         
--------------------|-------------------------|--4/---10----------------|
--3/---9------------|--------10--9--10--12----|-------------------------|
--------------------|-------------------------|-------------------------|
--------------------|-------------------------|-------------------------|
                                                                         
--12----11----------------|----------------------|----------------------|
--------------------------|----------------------|----------------------|
--------------------------|----------------------|----------------------|
--------------------------|----------------------|----------------------|
                                                               
|-------------------------------|----------------------------------|
|*------------------------------|----------------------------------|
|*--2----2--2--2--2----2--2--2--|--2----2--2-2-2-2--2--2--2--2--2--|
|-------------------------------|----------------------------------|
                                                                  
------------------------------|----------------------------------|
------------------------------|----------------------------------|
------------------------------|----------------------------------|
--1----1--1--1--1----1--1--1--|--1----1--1-1-1-1--1--1--1--1--1--|
                                                                
------------------------------|----------------------------------|
------------------------------|----------------------------------|
--2----2--2--2--2----2--2--2--|--2----2--2-2-2-2--2--2--2--2--2--|
------------------------------|----------------------------------|
                                                                    
------------------------------|-----------------------------------||
------------------------------|----------------------------------*||
------------------------------|----------------------------------*||
--1----1--1--1--1----1--1--1--|--1----1--1-1-1-1--1--1--1--1--1---||
                                                             
--------------------|-------------------|-------------------|
*-------------------|-------------------|-------------------|
*--2----------------|--2----------------|-------------------|
--------------------|-------------------|--1----------------|
                                                                       
--------------------||---------------------------|--------------------------|
-------------------*||---------------------------|--------------------------|
-------------------*||--2--2--2--2-2-2--2--2--2--|--2--2--2--2--2--2--5--5--|
--1-----------------||---------------------------|--------------------------|
                                                       
---------------------------|--------------------------|
---------------------------|--------------------------|
--2--2--2--2-2-2--2--2--2--|--2--2--2--2--2--2--------|
---------------------------|--------------------3--2--|
                                                   
---------------------------|--------------------------|
---------------------------|--------------------------|
---------------------------|--------------------3--3--|
--1--1--1--1-1-1--1--1--1--|--1--1--1--1--1--1--------|
                                                    
---------------------------|--------------------------|
---------------------------|--------------------------|
---------------------------|--------------------3--3--|
--1--1--1--1-1-1--1--1--1--|--1--1--1--1--1--1--------|
                                                       
---------------------------|--------------------------|
---------------------------|--------------------------|
--2--2--2--2-2-2--2--2--2--|--2--2--2--2--2--2--5--5--|
---------------------------|--------------------------|
                                                 
---------------------------|--------------------------|
---------------------------|--------------------------|
--2--2--2--2-2-2--2--2--2--|--2--2--2--2--2--2--------|
---------------------------|--------------------3--2--|
                                                       
---------------------------|--------------------------|
---------------------------|--------------------------|
---------------------------|--------------------3--3--|
--1--1--1--1-1-1--1--1--1--|--1--1--1--1--1--1--------|
                                                 
---------------------------|--------------------------|
---------------------------|--------------------------|
---------------------------|--------------------3--3--|
--1--1--1--1-1-1--1--1--1--|--1--1--1--1--1--1--------|
                                                       
---------------------------|--------------------------|
---------------------------|--------------------------|
--2--2--2--2-2-2--2--2--2--|--2--2--2--2--2--2--5--5--|
---------------------------|--------------------------|
                                                   
---------------------------|--------------------------|
---------------------------|--------------------------|
--2--2--2--2-2-2--2--2--2--|--2--2--2--2--2--2--------|
---------------------------|--------------------3--2--|
                                                 
---------------------------|--------------------------|
---------------------------|--------------------------|
---------------------------|--------------------3--3--|
--1--1--1--1-1-1--1--1--1--|--1--1--1--1--1--1--------|
                                                 
---------------------------|--------------------------|
---------------------------|--------------------------|
---------------------------|--------------------3--3--|
--1--1--1--1-1-1--1--1--1--|--1--1--1--1--1--1--------|
                                                       
---------------------------|--------------------------|
---------------------------|--------------------------|
--2--2--2--2-2-2--2--2--2--|--2--2--2--2--2--2--5--5--|
---------------------------|--------------------------|
                                                  
---------------------------|--------------------------|
---------------------------|--------------------------|
--2--2--2--2-2-2--2--2--2--|--2--2--2--2--2--2--------|
---------------------------|--------------------3--2--|
                                                       
---------------------------|--------------------------|
---------------------------|--------------------------|
---------------------------|--------------------3--3--|
--1--1--1--1-1-1--1--1--1--|--1--1--1--1--1--1--------|
                                                   
---------------------------|--------------------------|
---------------------------|--------------------------|
---------------------------|--------------------3--3--|
--1--1--1--1-1-1--1--1--1--|--1--1--1--1--1--1--------|
                                                   
|---------------------------|--------------------------|
|*--------------------------|--------------------------|
|*--2--2--2--2--2--2--2--2--|--2--2--2--2--2--2--2--2--|
|---------------------------|--------------------------|
                                                
--------------------------|--------------------------|
--------------------------|--------------------------|
--------------------------|--------------------------|
--1--1--1--1--1--1--1--1--|--1--1--1--1--1--1--1--1--|
                                                      
--------------------------|--------------------------|
--------------------------|--------------------------|
--2--2--2--2--2--2--2--2--|--2--2--2--2--2--2--2--2--|
--------------------------|--------------------------|
                                                                            
--------------------------|---------------------------||-------------------|
--------------------------|--------------------------*||-------------------|
--5--5--5--5--5--5--5--5--|--3--3--3--3--3--3--3--3--*||--2----------------|
--------------------------|---------------------------||-------------------|
                                                                                
-------------------|-------------------|-------------------|-------------------|
-------------------|-------------------|-------------------|-------------------|
--2----------------|-------------------|-------------------|--2----------------|
-------------------|--1----------------|--1----------------|-------------------|
                                                            
-------------------|-------------------|-------------------|
-------------------|-------------------|-------------------|
--2----------------|-------------------|-------------------|
-------------------|--1----------------|--1----------------|
                     
-------------------||
-------------------||
--2----------------||
-------------------||
Composição de Matthew Barlow
Colaboração e revisão:
  • Taino Vieira
23 exibições

0 comentários

Ver todos os comentários

Conseguiu tocar?

0 Tocaram 0 Ainda não

Grave um vídeo tocando Jeckyl and Hyde e nos envie!

00:00 / 00:00
outros vídeos desta música
repetir qualidade Automático
Outros vídeos desta música
00:00 / 00:00
Automático

Cifra Club Pro

Aproveite o Cifra Club com benefícios exclusivos e sem anúncios
Cifra Club Pro
Aproveite o Cifra Club com benefícios exclusivos e sem anúncios
OK