Cifra Club

Aprenda

Beatiful Girl

INXS

Cifra: Principal (violão e guitarra)
tom: B
(intro)

     B         E
------------------0------||   (4x)
--------4-------0---0----||
-------4---4---1-------1-||
-----4-------4-----------||
-------------------------||
-------------------------||

(piano parte)
       B     E     B     E           B     E     B     E
--------------------------------|-----------------------------|
------------4-4-----------------|---------4-4-----------------|
--------4-6---------4-6-4---4---|-----4-6---------4-6-4---4---|
----4-6---------4-6-------6-----|-4-6---------4-6-------6-----|
--------------------------------|-----------------------------|
--------------------------------|-----------------------------|
       G#m   D#m  G#m   D#m   E     F#      E     F#
----4-2-4------4-2-4-------4-2-----------4-2------------------|
----------4----------4-2-------4-2-----------4-2--------------|
-------------------------4---------4-1-4---------4-1-4-1------|
---------------------------------------------------------4----|
--------------------------------------------------------------|
--------------------------------------------------------------|

       B               E      B                  E
        Nicky's in the corner, with a black coat on
       B               E        B                E
        Running from a bad home, with some cat inside
       B                  E        B                E
        Now where did you find her, among the neon lights
       B                 E                      B          E
        That haunt the streets outside, she says stay with me
       F#         G#m             E     B C#m B
        Beautiful girl (stay with me)
       F#         G#m             E
        Beautiful girl (stay with me)
       C#m           E
        She wanna go home
       B                E       B                 E
        From doorway to doorway, street corner to corner
       B     E                  B        E              B
        Neon ghosts in the city, and she says stay with me

        ( B E )
        Stay with me
        Stay with me
        Stay with me

        (same chords as first stanza and chorus)
        She's so scared, so very frightened
        Anything can happen, right here tonight
        Beautiful girl (stay with me)
        Beautiful girl (stay with me)
        She wanna go home

       B          E
        Stay with me (beautiful girl)
       B          E
        Stay with me (beautiful girl)
       B          E
        Stay with me (beautiful girl)
       B          E                   B
        Stay with me (beautiful girl)
Composição de Andrew Farriss
Colaboração e revisão:
  • Vinicius Chargel
  • Bruno Aparecida
  • Hériko Brayn
105.421 exibições
    • ½ Tom
    • A
    • Bb
    • B
    • C
    • Db
    • D
    • Eb
    • E
    • F
    • F#
    • G
    • Ab
  • Adicionar à lista

    0 comentários

    Ver todos os comentários
    00:00 / 00:00
    outros vídeos desta música
    repetir qualidade Automático
    Outros vídeos desta música
    00:00 / 00:00
    Automático

    Cifra Club Pro

    Aproveite o Cifra Club com benefícios exclusivos e sem anúncios
    Cifra Club Pro
    Aproveite o Cifra Club com benefícios exclusivos e sem anúncios
    OK