Cifra Club

Aprenda

Over And Over And Over

Jack White

Cifra: Principal (violão e guitarra)
Já pensou em usar uma coleção de roupas do Cifra Club? Responda as perguntas abaixo e nos ajude nessa missão! →
tom: G
[Intro]

E|------------------------|----------------------|------------------------|----------------|
B|------------------------|----------------------|------------------------|----------------|
G|------------------------|----------------------|------------------------|----------------|
D|----2--2-2-----------2--|--2--2-2-----------2--|----2--2-2-----------2--|----------------|
A|------------5--2--5-----|----------5--2--5-----|------------5--2--5-----|--2-3--5--3--2--|
E|-0----------------------|----------------------|-0----------------------|----------------|

E|----------------------|----------------------|------------------------|----------------|
B|----------------------|----------------------|------------------------|----------------|
G|----------------------|----------------------|------------------------|----------------|
D|--2--2-2-----------2--|--2--2-2-----------2--|----2--2-2-----------2--|----------------|
A|----------5--2--5-----|----------5--2--5-----|------------5--2--5-----|--2-3--5--3--2--|
E|----------------------|----------------------|-0----------------------|----------------|

[Verso 1]

E|----------------------|----------------------|------------------------|----------------|
B|----------------------|----------------------|------------------------|----------------|
G|----------------------|----------------------|------------------------|----------------|
D|--2--2-2-----------2--|--2--2-2-----------2--|----2--2-2-----------2--|----------------| (x2)
A|----------5--2--5-----|----------5--2--5-----|------------5--2--5-----|--2-3--5--3--2--|
E|----------------------|----------------------|-0----------------------|----------------|

E|--------------------------------|
B|--------------------------------|
G|--------------------------------|
D|--------------------------------|
A|------------------------2-2-----|
E|--5-5---5-5---5-5--5-5-------3--|

"My shoulder holds..."
E|------------------------|----------------------|------------------------|----------------|
B|------------------------|----------------------|------------------------|----------------|
G|------------------------|----------------------|------------------------|----------------|
D|----2--2-2-----------2--|--2--2-2-----------2--|----2--2-2-----------2--|----------------|
A|------------5--2--5-----|----------5--2--5-----|------------5--2--5-----|--2-3--5--3--2--|
E|-0----------------------|----------------------|-0----------------------|----------------|

E|-----------------|
B|-----------------|
G|-----------------|
D|-----------------|
A|-----------------|
E|--3--5--7--3--2--|


[Refrão 1]

"The wind is blowing"
E|------------------------|-----------------------|------------------------|----------------|
B|------------------------|-----------------------|------------------------|----------------|
G|------------------------|-----------------------|------------------------|----------------|
D|----2--2-2--------------|---2--2-2--------------|----2--2-2--------------|----------------| (x2)
A|------------5--2--------|-----------5--2--------|------------5--2--------|--2-3--5--3--2--|
E|-0----------------5--3--|-0---------------5--3--|-0----------------5--3--|----------------|

E|-----------------|
B|-----------------|
G|-----------------|
D|-----------------|
A|-----------------|
E|--3--5--7--3--2--|


[Verso 2]

"Hollow body"
E|----------------------|----------------------|------------------------|----------------|
B|----------------------|----------------------|------------------------|----------------|
G|----------------------|----------------------|------------------------|----------------|
D|--2--2-2-----------2--|--2--2-2-----------2--|----2--2-2-----------2--|----------------| (x2)
A|----------5--2--5-----|----------5--2--5-----|------------5--2--5-----|--2-3--5--3--2--|
E|----------------------|----------------------|-0----------------------|----------------|

E|--------------------------------|
B|--------------------------------|
G|--------------------------------|
D|--------------------------------|
A|------------------------2-2-----|
E|--5-5---5-5---5-5--5-5-------3--|

"And although you've warned me"
E|------------------------|----------------------|------------------------|----------------|
B|------------------------|----------------------|------------------------|----------------|
G|------------------------|----------------------|------------------------|----------------|
D|----2--2-2-----------2--|--2--2-2-----------2--|----2--2-2-----------2--|----------------|
A|------------5--2--5-----|----------5--2--5-----|------------5--2--5-----|--2-3--5--3--2--|
E|-0----------------------|----------------------|-0----------------------|----------------|

E|-----------------|
B|-----------------|
G|-----------------|
D|-----------------|
A|-----------------|
E|--3--5--7--3--2--|


[Refrão 2]

"The wind is blowing"
E|------------------------|-----------------------|------------------------|----------------|
B|------------------------|-----------------------|------------------------|----------------|
G|------------------------|-----------------------|------------------------|----------------|
D|----2--2-2--------------|---2--2-2--------------|----2--2-2--------------|----------------| (x2)
A|------------5--2--------|-----------5--2--------|------------5--2--------|--2-3--5--3--2--|
E|-0----------------5--3--|-0---------------5--3--|-0----------------5--3--|----------------|

E|-----------------|
B|-----------------|
G|-----------------|
D|-----------------|
A|-----------------|
E|--3--5--7--3--2--| 


[Solo 1]

Guitar 1
E|----------------------------|----------------------------|----------------------------|----------------||
B|----------------------------|----------------------------|----------------------------|----------------||
G|----------------------------|----------------------------|----------------------------|----------------||
D|-----2--2-2-----------------|-----2--2-2-----------------|-----2--2-2-----------------|----------------||
A|-------------5--2-----------|-------------5--2-----------|-------------5--2-----------|--2-3--5--3--2--||
E|-------------------5--3-----|-------------------5--3-----|-------------------5--3-----|----------------||
Guitar 2                                                                                                  | 
E|----------------------------|----------------------------|----------------------------|----------------||
B|-------------------------15-|-------------------------15-|-------------------------15-|----------------||
G|----------12h14p12----16----|----------12h14p12----16----|----------12h14p12----16----|----------------||
D|-12/14-14----------14-------|-12/14-14----------14-------|-12/14-14----------14-------|----------------||
A|----------------------------|----------------------------|----------------------------|----------------||
E|----------------------------|----------------------------|----------------------------|----------------||


[Ponte]

Guitar 2 
E|----------------------------|----------------------------|----------------------------|
B|-------------------------15-|-------------------------15-|-------------------------15-|
G|----------12h14p12----16----|----------12h14p12----16----|----------12h14p12----16----|
D|-12/14-14----------14-------|-12/14-14----------14-------|-12/14-14----------14-------|
A|----------------------------|----------------------------|----------------------------|
E|----------------------------|----------------------------|----------------------------|

"Eagle's gonna blind 'em "
E|----------------|----------------------------|
B|----------------|----------------------------|
G|----------------|-------------------------2--|
D|----------------|--------2-----------2--5----|
A|--2-3--5--3--2--|--0-4-5---5-4-0-4-5---------|
E|----------------|----------------------------|

"Yeah, my shoulder on a boulder"
E|------------------------|----------------------|------------------------|----------------|
B|------------------------|----------------------|------------------------|----------------|
G|------------------------|----------------------|------------------------|----------------|
D|----2--2-2-----------2--|--2--2-2-----------2--|----2--2-2-----------2--|----------------|
A|------------5--2--5-----|----------5--2--5-----|------------5--2--5-----|--2-3--5--3--2--|
E|-0----------------------|----------------------|-0----------------------|----------------|

E|-----------------|
B|-----------------|
G|-----------------|
D|-----------------|
A|-----------------|
E|--3--5--7--3--2--|


[Refrão 3]

"The wind is blowing"
E|------------------------|-----------------------|------------------------|----------------|
B|------------------------|-----------------------|------------------------|----------------|
G|------------------------|-----------------------|------------------------|----------------|
D|----2--2-2--------------|---2--2-2--------------|----2--2-2--------------|----------------| 
A|------------5--2--------|-----------5--2--------|------------5--2--------|--2-3--5--3--2--|
E|-0----------------5--3--|-0---------------5--3--|-0----------------5--3--|----------------|

E|------------------------|-----------------------|------------------------|
B|------------------------|-----------------------|------------------------|
G|------------------------|-----------------------|------------------------|
D|----2--2-2--------------|---2--2-2--------------|----2--2-2--------------|
A|------------5--2--------|-----------5--2--------|------------5--2--------|
E|-0----------------5--3--|-0---------------5--3--|-0----------------5--3--|

E|-----------------|
B|-----------------|
G|-----------------|
D|-----------------|
A|-----0--2--------|
E|--3--------3--2--|


[Solo Teclado]

E|----------------|
B|----------------|
G|----------------|
D|----------------|
A|--2-3--5--3--2--|
E|----------------|

E|----------------|
B|----------------|
G|----------------|
D|----------------|
A|--2-3--5--3--2--|
E|----------------|


[Bongo Solo]

E|--------------------------------|
B|--------------------------------|
G|--------------------------------|
D|--------------------------------|
A|------------------------2-2-----|
E|--5-5---5-5---5-5--5-5-------3--|


[Final]

E|------------------------|----------------------|------------------------|----------------|
B|------------------------|----------------------|------------------------|----------------|
G|------------------------|----------------------|------------------------|----------------|
D|----2--2-2-----------2--|--2--2-2-----------2--|----2--2-2-----------2--|----------------|
A|------------5--2--5-----|----------5--2--5-----|------------5--2--5-----|--2-3--5--3--2--|
E|-0----------------------|----------------------|-0----------------------|----------------|

E|-----------------|
B|-----------------|
G|-----------------|
D|-----------------|
A|-----------------|
E|--3--5--7--3--2--|

E|------------------------|-----------------------|------------------------|----------------|
B|------------------------|-----------------------|------------------------|----------------|
G|------------------------|-----------------------|------------------------|----------------|
D|----2--2-2--------------|---2--2-2--------------|----2--2-2--------------|----------------| (x2)
A|------------5--2--------|-----------5--2--------|------------5--2--------|--2-3--5--3--2--|
E|-0----------------5--3--|-0---------------5--3--|-0----------------5--3--|----------------|

E|-----------------|
B|-----------------|
G|-----------------|
D|-----------------|
A|-----------------|
E|--3--5--7--3--2--|

E|----------------|-----------------|
B|----------------|-----------------|
G|----------------|-----------------|
D|----------------|-----------------|
A|--2-3--5--3--2--|-----------------|
E|----------------|--3--5--7--3--2--|
Composição de Jack White
Colaboração e revisão:
  • Leonardo Silva
1.193 exibições
    • ½ Tom
    • A
    • Bb
    • B
    • C
    • Db
    • D
    • Eb
    • E
    • F
    • F#
    • G
    • Ab
  • Adicionar à lista

    0 comentários

    Ver todos os comentários

    Conseguiu tocar?

    2 Tocaram 0 Ainda não

    Grave um vídeo tocando Over And Over And Over e nos envie!

    00:00 / 00:00
    Outros vídeos desta música
    Repetir Qualidade Automático
    Outros vídeos desta música
    00:00 / 00:00
    Automático

    Cifra Club Pro

    Aproveite o Cifra Club com benefícios exclusivos e sem anúncios
    Cifra Club Pro
    Aproveite o Cifra Club com benefícios exclusivos e sem anúncios
    OK