Cifra Club

Aprenda

Mountain Song

Jane's Addiction

Tab de baixo: Principal
INTRO
G|---------------------------------|
D|---------5-----------------------|   Repeat 8 times until BREAK
A|-5h7-7-7---7-7-7-5h7-7-7---------|
E|-------------------------0-0-0-0-|
   1   +   2   +   3   +   4   +


BREAK
G|---------------------------------|
D|---------------------------------|
A|-7~------------------------------|
E|-0~------------------------------|
   1   +   2   +   3   +   4   +


VERSE
G|---------------------------------|
D|---------5-----------------------|   Repeat until PRE-CHORUS
A|-5h7-7-7---7-7-7-5h7-7-7---------|
E|-------------------------0-0-0-0-|
   1   +   2   +   3   +   4   +


PRE-CHORUS
G|---------------------------------|
D|-----------------------------5---|
A|-5h7-7-7-5h7-7-7-5h7-7-7-5h7---7-|
E|---------------------------------|
   1   +   2   +   3   +   4   +


CHORUS - let every note ring
G|-------------7-7-----7---7-7-7-7-|-7-----------7-7-----7---7-7-7-7-|
D|-------------5-5-----5---5-5-5-5-|-7-----------7-7-----7---7-7-7-7-|
A|-5-----------5-5-----5---5-5-5-5-|-5-----------5-5-----5---5-5-5-5-|
E|---------------------------------|---------------------------------|
   1   +   2   +   3   +   4   +     1   +   2   +   3   +   4   +

G|-7-----------7-7-----7---7-7-7-7-|-7-------------777---7---7---7---|
D|-7-----------7-7-----7---7-7-7-7-|-7-------------777---7---7---7---|
A|-5-----------5-5-----5---5-5-5-5-|-5-------------555---5---5---5---|
E|---------------------------------|-------------------------------0-|
   1   +   2   +   3   +   4   +     1   +   2   +   3   +   4   +


Repeat the VERSE, PRE-CHORUS, and CHORUS until...

OUTRO
G|---------------------------------|
D|---------5-----------------------|
A|-5-7-------7-----5-7~------------|
E|-------------------0~------------|
   1   +   2   +   3   +   4   +From: ** (Brandon Joseph Dudley)
Newsgroups: *


This is the main riff throughout the song. I haven't bothered to figure out any
of the smaller parts...

G--------------------------------------------------------------------------
D---------------5----------------------------------------------------------
A------5h7-7-7-----7-7-7--5h7-7-7------------------------------------------
E----------------------------------5-5-5-5---------------------------------
                                                (repeats...)
Composição de Jane's Addiction / Perry Farrell
Colaboração e revisão:
  • Gabriel Leite
529 exibições

0 comentários

Ver todos os comentários

Conseguiu tocar?

0 Tocaram 0 Ainda não

Grave um vídeo tocando Mountain Song e nos envie!

00:00 / 00:00
Outros vídeos desta música
Repetir Qualidade Automático
Outros vídeos desta música
00:00 / 00:00
Automático

Cifra Club Pro

Aproveite o Cifra Club com benefícios exclusivos e sem anúncios
Cifra Club Pro
Aproveite o Cifra Club com benefícios exclusivos e sem anúncios
OK