Cifra Club

Química

João Bosco e Vinícius

Cifra: Principal
exibições 150.324
Tom: C
Intro: C G F G Am G F

E|-------------------------------------|
B|-------------------------------------|
G|--5---5--7-7--4---4--5-5--4----------|
D|----5-----------5-----------7--------|
A|-------------------------------------|
E|-------------------------------------|

E|-------------------------------------|
B|-------------------------------------|
G|--9/10--10/9--9/7--7/9---------------|
D|-------------------------------------|
A|-------------------------------------|
E|-------------------------------------|

E|-------------------------------------|
B|--5--------5--------3--------3-------|
G|----5--------5--------4--------4-----|
D|------7-7------7-7------5-5------5-5-|
A|-------------------------------------|
E|-------------------------------------|

E|-------------------------------------|
B|--1--------1-------------------------|
G|----2--------2-----------------------|
D|------3-3------3-3-------------------|
A|-------------------------------------|
E|-------------------------------------|


           Am
Desde o primeiro dia que a gente se viu
          F
Impressionante a química que nos uniu
     C                        G              F
E o tempo foi tornando tão intenso o nosso amor

        Am
Faróis iluminavam o meu coração
        F
Feito faísca que virou uma explosão
     C                        G                F
E o tempo foi tornando tão intensa a nossa paixão

       Dm           G          Am  G
Tem magia o teu sorriso encantador
       F            Dm
Com você tudo é tão bom
           G
Não tenho medo de dizer que é amor

(Refrão)

C                  G                 F
Fui feito pra você, você nasceu pra mim
     G
É o coração que diz assim
Am               G                  F
Amo até seus defeitos, imagine os beijos
 G
Já tomou conta de mim

C                  G                 F
Fui feito pra você, você nasceu pra mim
     G
É o coração que diz assim
Am                 G                   F
Amor não tem mais jeito, te tatuei no peito
     G
Pra sempre ta grudado em mim

(Intro)

E|-------------------------------------|
B|-------------------------------------|
G|--5---5--7-7--4---4--5-5--4----------|
D|----5-----------5-----------7--------|
A|-------------------------------------|
E|-------------------------------------|

E|-------------------------------------|
B|-------------------------------------|
G|--9/10--10/9--9/7--7/9---------------|
D|-------------------------------------|
A|-------------------------------------|
E|-------------------------------------|

E|-------------------------------------|
B|--5--------5--------3--------3-------|
G|----5--------5--------4--------4-----|
D|------7-7------7-7------5-5------5-5-|
A|-------------------------------------|
E|-------------------------------------|

E|-------------------------------------|
B|--1--------1-------------------------|
G|----2--------2-----------------------|
D|------3-3------3-3-------------------|
A|-------------------------------------|
E|-------------------------------------|



       F            G          Am  G
Tem magia o teu sorriso encantador
       F            Dm
Com você tudo é tão bom
           G
Não tenho medo de dizer que é amor


(Refrão) 2x

E|-------------------------------------|
B|-------------------------------------|
G|--5---5--7-7--4---4--5-5--4----------|
D|----5-----------5-----------7--------|
A|-------------------------------------|
E|-------------------------------------|

E|-------------------------------------|
B|-------------------------------------|
G|--9/10--10/9--9/7--7/9---------------|
D|-------------------------------------|
A|-------------------------------------|
E|-------------------------------------|

E|-------------------------------------|
B|--5--------5--------3--------3-------|
G|----5--------5--------4--------4-----|
D|------7-7------7-7------5-5------5-5-|
A|-------------------------------------|
E|-------------------------------------|

E|-------------------------------------|
B|--1--------1-------------------------|
G|----2--------2-----------------------|
D|------3-3------3-3-------------------|
A|-------------------------------------|
E|-------------------------------------|
Acordes para:
    Colaboração e revisão:
    • Diogo Silva
    • Bryan Voltani
    • Lucas Ribeiro

    0 comentários

      mostrar mais comentários

      Conseguiu tocar?

      25tocaram0ainda não

      Grave um vídeo tocando Química e mande pra gente!

      00:00 / 00:00
      outros vídeos desta música
      repetirqualidadeautomática
      Outro vídeos desta música
        00:00 / 00:00
        automática
        OK