Cifra Club

Aprenda

Your Body Is A Wonderland

John Mayer

Cifra: Versão 3 (violão e guitarra)
Já pensou em usar uma coleção de roupas do Cifra Club? Responda as perguntas abaixo e nos ajude nessa missão! →
tom: C
Afinação: D A D G B E

INTRODUÇÃO/VERSO:
E|------------------------------------------------------
B|------------------------------------------------------
G|------10-x-10------10-x-10-----10-x-10------10-x-10---
D|------10-x-10------10-x-10-----10-x-10------10-x-10---
A|---8--------------------------------------------------
D|---------------10-----------8------------10-----------

PRE REFRÃO:
E|------------------------------------------------------ 
B|----10--8-----10--8----------3-----5-----6------8----- 
G|----10-10-----10-10----------3-----5-----7------9----- 
D|-----8--8------8--8---(x3)---5-----7-----8-----10----- 
A|-----------------------------x-----x-----x------x----- 
D|---8--------10------------5--5--7--7--8--8--10-10----- 

REFRÃO:
E|----------------------------------------------
B|----------------------------------------------
G|------10-10------10-10-----10-10------10-10---
D|------10-10------10-10-----10-10------10-10---
A|---8------------------------------------------
D|--------------10---------8---------10---------

PONTE:
E|-------------------  
B|---6---8-----------   
G|---7---9-----------  
D|---x---x---(x4)---- 
A|---5---0-----------   
D|-------------------

E|---12--8------------------------------- ---12--8------10-------
B|-----------/10--8--6---6/8---10/8--6--- ----------10------12---
G|---12--9------------------------------- ---12--9------10-------
D|-----------/10--8--7---7/9---10/8--7--- ----------10------12---
A|--------------------------------------- -----------------------
D|--------------------------------------- -----------------------

E|---12--8------------------------------- ---12--8------15--12---
B|-----------/10--8--6---6/8---10/8--6--- ----------10-----------
G|---12--9------------------------------- ---12--9------16--12---
D|-----------/10--8--7---7/9---10/8--7--- ----------10-----------
A|--------------------------------------- -----------------------
D|--------------------------------------- -----------------------
Composição de John Mayer
Colaboração e revisão:
  • Tiago Vieira
17.274 exibições
  • Simplificar cifra
    • ½ Tom
    • A
    • Bb
    • B
    • C
    • Db
    • D
    • Eb
    • E
    • F
    • F#
    • G
    • Ab
  • Adicionar à lista

    0 comentários

    Ver todos os comentários

    Conseguiu tocar?

    1 Tocaram 0 Ainda não

    Grave um vídeo tocando Your Body Is A Wonderland e nos envie!

    00:00 / 00:00
    Outros vídeos desta música
    Repetir Qualidade Automático
    Outros vídeos desta música
    00:00 / 00:00
    Automático
    Capítulos
    • Início
    • Tocando a música
    • Acordes da Introdução e Primeira Parte
    • Tocando Introdução e Primeira Parte
    • Ensinando Introdução e Primeira Parte
    • Acordes do Pré-Refrão
    • Tocando Pré-Refrão
    • Ensinando Pré-Refrão
    • Tocando Refrão
    • Acordes da Terceira Parte
    • Tocando Terceira Parte
    • Ensinando Terceira Parte
    • Tocando Refrão Final e Vocalize
    • Encerramento

    Cifra Club Pro

    Aproveite o Cifra Club com benefícios exclusivos e sem anúncios
    Cifra Club Pro
    Aproveite o Cifra Club com benefícios exclusivos e sem anúncios
    OK