Cifra Club

Aprenda

Your Body Is A Wonderland

John Mayer

Cifra: Simplificada (violão e guitarra)
Já pensou em usar uma coleção de roupas do Cifra Club? Responda as perguntas abaixo e nos ajude nessa missão! →
tom: E
(intro 2x)  E5   B4   A5(9)  B4

(primeira parte)

(ritmo intro, primeira parte e refrão)

   E5        B4        A5(9)     B4
E|---0-x-0-|---0-x-0-|---0-x-0-|---0-x-0----|
B|---0-x-0-|---0-x-0-|---0-x-0-|---0-x-0----|
G|-----x---|-----x---|-----x---|-----x------|
D|-2---x---|-----x---|-----x---|-----x------|
A|-----x---|-2---x---|-0---x---|-2---x------|
E|-----x---|-----x---|-----x---|-----x------|

E5     B4     A5(9)     B4
   We got the afternoon
E5      B4       A5(9)       B4
   You got this room for two
E5       B4        A5(9)     B4
   One thing I've left to do
E5     B4          A5(9)       B4
   Discover me discovering you

E5      B4     A5(9)         B4
   One mile to every inch of
E5        B4       A5(9)    B4
   Your skin like porcelain
E5      B4      A5(9)  B4
   One pair of candy  lips and
      E5        B4    A5(9)  B4
Your bubblegum tongue

(pré-refrão)

(ritmo pré-refrão)

1º parte) 3x

   A5(9)               B4
E|---0-x-0-|---0-x-0-|---0-x-0-|---0-x-0----|
B|---0-x-0-|---0-x-0-|---0-x-0-|---0-x-0----|
G|-----x---|-----x---|-----x---|-----x------|
D|-----x---|-----x---|-----x---|-----x------|
A|-0---x---|-0---x---|-2---x---|-2---x------|
E|-----x---|-----x---|-----x---|-----x------|

2º parte)

   F#m7(11)  E/G#      A5(9)     B4
E|---0-x-0-|---0-x-0-|---0-x-0-|---0-x-0----|
B|---0-x-0-|---0-x-0-|---0-x-0-|---0-x-0----|
G|-----x---|-----x---|-----x---|-----x------|
D|-----x---|-----x---|-----x---|-----x------|
A|-----x---|-----x---|-0---x---|-2---x------|
E|-2---x---|-4---x---|-----x---|-----x------|

            A5(9)
And if you want love
       B4
We'll make it
            A5(9)
Swimming a deep sea
     B4
Of blankets
               A5(9)
Take all your big plans
      B4
And break 'em
         F#m7(11)   E/G#      A5(9)  B4
This is bound to   be a while

(refrão)
                E5          B4  A5(9)
Your body is a wonderland
      B4        E5         B4      A5(9)
Your body is a wonder I'll use my hands
      B4        E5          B4  A5(9)  B4
Your body is a wonderland

(segunda parte)

E5            B4
  Something 'bout the way that your
 A5(9)              B4
Hair falls in your face
E5              B4
   I love the shape you take when
  A5(9)               B4
Crawling towards the pillowcase
E5              B4
  You tell me where to go and
A5(9)                 B4
      Though I might leave to find it
      E5             B4
I'll never let your head hit the bed
A5(9)             B4
      Without my hand behind it

(pré-refrão)

A5(9)
      You want love
       B4
We'll make it
            A5(9)
Swimming a deep sea
     B4
Of blankets
               A5(9)
Take all your big plans
      B4
And break 'em
         F#m7(11)   E/G#      A5(9)  B4
This is bound to   be a while

(refrão)
                E5          B4  A5(9)
Your body is a wonderland
      B4        E5         B4      A5(9)
Your body is a wonder I'll use my hands
      B4        E5         B4  A5(9)  B4
Your body is a wonderland

(terceira parte)

(ritmo terceira parte)

1ª parte) 4x

   C#m9  C#4(7)
E|--0--x--2--|----2---2---2---2---2---------|
B|--4--x--0--|----0---0---0---0---0---------|
G|-----x-----|------------------------------|
D|-----x-----|------------------------------|
A|--4--x--4--|--4---4---4---4---4---4-------|
E|-----x-----|------------------------------|

Preparação)

E|-x-0-x-0-x-0-x-0-x-0-x-0-x-0-x-0----------|
B|-x-0-x-0-x-0-x-0-x-0-x-0-x-0-x-0----------|
G|-x---x---x---x---x---x---x---x------------|
D|-x---x---x---x---x---x---x---x------------|
A|-x---x---x---x---x---x---x---x------------|
E|-x---x---x---x---x---x---x---x------------|

C#m9     C#4(7)
                Damn baby
C#m9     C#4(7)
                You frustrate me
C#m9     C#4(7)
                I know you're mine all mine all mine
C#m9     C#4(7)
                But you look so good it hurts sometimes

(refrão)
                E5          B4  A5(9)
Your body is a wonderland
      B4        E5         B4      A5(9)
Your body is a wonder I'll use my hands
      B4        E5         B4  A5(9)  B4
Your body is a wonderland
      B4        E5         B4  A5(9)  B4
Your body is a wonderland

(final) 4x

E5              B4
   Da da da... da da da da da
A5(9)              B4
      Da da da... da da da da
Composição de John Mayer
Colaboração e revisão:
  • Leandro Sandim
  • Vinícius Dias
  • Felipe Santos
80.200 exibições
    • ½ Tom
    • A
    • Bb
    • B
    • C
    • Db
    • D
    • Eb
    • E
    • F
    • F#
    • G
    • Ab
  • Adicionar à lista

    0 comentários

    Ver todos os comentários

    Conseguiu tocar?

    17 Tocaram 0 Ainda não

    Grave um vídeo tocando Your Body Is A Wonderland e nos envie!

    00:00 / 00:00
    Outros vídeos desta música
    Repetir Qualidade Automático
    Outros vídeos desta música
    00:00 / 00:00
    Automático
    Capítulos
    • Início
    • Tocando a música
    • Acordes da Introdução e Primeira Parte
    • Tocando Introdução e Primeira Parte
    • Ensinando Introdução e Primeira Parte
    • Acordes do Pré-Refrão
    • Tocando Pré-Refrão
    • Ensinando Pré-Refrão
    • Tocando Refrão
    • Acordes da Terceira Parte
    • Tocando Terceira Parte
    • Ensinando Terceira Parte
    • Tocando Refrão Final e Vocalize
    • Encerramento

    Cifra Club Pro

    Aproveite o Cifra Club com benefícios exclusivos e sem anúncios
    Cifra Club Pro
    Aproveite o Cifra Club com benefícios exclusivos e sem anúncios
    OK