Cifra Club

Aprenda

Waiting On the World to Change

John Mayer

Cifra: Principal (violão e guitarra)
Tom: D
[Intro] D  Bm  G  D2
        A  Bm  G  D2

        D    Bm       G  D2 Bm          A   Bm  G   D
E|---------------------------------| X------------------|
B|----10---7--7-----3--------------| X--5---7---3-------|
G|----11---7--7h9---4---7--7h9p7---| X--6---7---4---7---|
D|----12---9--7-----5---7--7---7h9-| X--7---9---5---7---|
A|----------------------5----------| X--------------5---|
E|----10---7--------3------7---7---| X--5---7---3-------|

 D          Bm
Me and all my friends
       G                   D2
We're all misunderstood
      A           Bm
They say we stand for nothing and
           G           D2
There's no way we ever could

 D                     Bm
Now we see everything that's going wrong

           G               D2
With the world and those who lead it
        A             Bm
We just feel like we don't have the means
    G              D2
To rise above and beat it
          D       Bm
So we keep waiting
               G        D2
Waiting on the world to change
          A       Bm
We keep on waiting
               G        D2
Waiting on the world to change

      D             Em7
It's hard to beat the system
           Bm7           Em7
When we're standing at a distance
          A      Bm
So we keep waiting
                G        D2
Waiting on the world to change

    D             Bm
Now if we had the power
             G                        D2
To bring our neighbors home from war
                A              Bm
They would have never missed a christmas
        G               D2
No more ribbons on their door

             D             Bm
And when you trust your television
         G             D*
What you get is what you got
                A                  Bm
Cause when they own the information, oh
         G               D2
They can bend it all they want

                 D       Bm
That's why we're waiting
               G         D2
Waiting on the world to change
           A     Bm
We keep on waiting
               G               D2
Waiting on the world to change

      D                       Em7
It's not that we don't care,
         Bm7               Em7
We just know that the fight ain't fair
              A     Bm
So we keep on waiting
               G                D2
Waiting on the world to change

[Solo] D  Bm  G  D2
       A  Bm  G  D 
       D  Bm  G  D2
       A  Bm  G  D 

E|-----------------------------------------------------------|
B|---------10---10-12----10-12/15--15-17-17b15--17b17b17b15--|
G|-9b-9h11----11-------11--------16--------------------------|
D|-----------------------------------------------------------|
A|-----------------------------------------------------------|
E|-----------------------------------------------------------|

[Solo] D  Bm  G  D2

E|-----------------------------------------------------------|
B|-------10-12b-10h12----------10----------------------------|
G|---9/11------------11--9/11/9--9/11-7----------------------|
D|-----------------------------------------------------------|
A|-----------------------------------------------------------|
E|-----------------------------------------------------------|

            D            Bm
And we're still waiting
               G               D2
Waiting on the world to change
           A     Bm
We keep on waiting
               G               D2
Waiting on the world to change

     D          Em7
One day our generation
         Bm7         Em7
Is gonna rule the population
              A      Bm
So we keep on waiting
               G               D2
Waiting on the world to change

           A     Bm
We keep on waiting
               G               D2
Waiting on the world to change

           A     Bm
We keep on waiting
               G        D2
Waiting on the world to change
               G        D2
Waiting on the world to change
               G               D2
Waiting on the world to change
               G               D2
Waiting on the world to change

      Em7     Bm7
E|----7-------7-----------|
B|----8-------7-----------|
G|----7-------7-----------|
D|----9-------7-----------|
A|----7-------9-----------|
E|------------7-----------|

       D
E|------------------------|
B|----------7h8-7---7-----|
G|-----7----7---7h9-7-----|
D|-----7----7---7---7h9---|
A|-----5------------------|
E|------------------------|
Composição de John Mayer
Colaboração e revisão:
115.885 exibições
    • ½ Tom
    • A
    • Bb
    • B
    • C
    • Db
    • D
    • Eb
    • E
    • F
    • F#
    • G
    • Ab
  • Adicionar à lista

    0 comentários

    Mostrar mais comentários

    Conseguiu tocar?

    19 Tocaram 0 Ainda não

    Grave um vídeo tocando Waiting On the World to Change e mande pra gente!

    00:00 / 00:00
    outros vídeos desta música
    repetir qualidade Automático
    Outros vídeos desta música
    00:00 / 00:00
    Automático

    Cifra Club Pro

    Aproveite o Cifra Club com benefícios exclusivos e sem anúncios
    7 dias grátis
    Cifra Club Pro
    Aproveite o Cifra Club com benefícios exclusivos e sem anúncios
    7 dias grátis
    OK