Cifra Club

Aprenda

Amor Maior

Jota Quest

Cifra: Versão 2 (violão e guitarra)
tom: C
Verso:
      Bb        A          Dm          Eb         Bb
E|----6----------5----------5-----------3----------6------------|
B|------6----------5----------6-----------4----------6----------|
G|--------7----------6----------7-----------3----------7--------|
D|--------------------------------------------------------------|
A|------------------------5-----------6-------------------------|
E|-6-----------5---------------------------------6--------------|

Pré Refrão:

       G          Bb         C
E|-----3----------6-----------8-----------------|
B|----------------------------------------------|
G|--------4----------7--------------9-----------|
D|-------5---------8-------------10-------------|
A|----------------------------------------------|
E|---3---------6------------8-------------------|

Verso:

Bb         A      Dm      Eb                  Bb
  Eu quero ficar só, mas comigo só eu não consigo
           A          Dm      Eb                 Bb  
  Eu quero ficar junto, mas sozinho só não é possível
       A            Dm        Eb                Bb
  É preciso amar direito, um amor de qualquer jeito
       A                 Dm      Eb                
  Ser amor a qualquer hora, ser amor de corpo inteiro

Pre Refrao:

G                    Bb     C                F 
  Amor de dentro pra fora, amor que eu desconheço

Refrao:

F           Am        Dm              G  Bb
  Quero um amor maior, amor maior que eu
F           Am        Dm                 G  Bb
  Quero um amor maior, um amor maior que eu

Verso:

Bb         A       Dm      Eb                Bb
  Eu quero ficar só, mas comigo só eu não consigo
           A          Dm      Eb                     Bb
  Eu quero ficar junto, mas sozinho assim não é possível
       A            Dm        Eb                Bb 
  É preciso amar direito, um amor de qualquer jeito
       A                 Dm      Eb                     
  Ser amor a qualquer hora, ser amor de corpo inteiro

Pre Refrao:

G                    Bb     C                F
  Amor de dentro pra fora, amor que eu desconheço

Refrao:

F           Am        Dm              G  Bb
  Quero um amor maior, amor maior que eu
F           Am        Dm                 G  Bb
  Quero um amor maior, um amor maior que eu


Outros:
Bb           A              Dm          Eb               Bb
  Então seguirei meu coração, até o fim, pra saber se é amor
       A            Dm               Eb                   Bb
  Magoarei mesmo assim, mesmo sem querer, pra saber se é amor
         A           Dm            Eb
  Eu estarei mais feliz mesmo morrendo de dor
G       Bb        C           F
  Pra saber se é amor, se é amor

Refrao:

F           Am        Dm              G  Bb
  Quero um amor maior, amor maior que eu
F           Am        Dm                 G  
  Quero um amor maior, um amor maior que eu

SOLO feito por danilo martine do factor 8
E|-----------------------------------------------------------------------------|
B|-------------------------------6---6~-8b-8b-8b-8b-8p6-8b-8p6-8b-8p6-8b-8p6-8b|
G|---------5---5h7-5~-5h7-5~-5h7---7-------------------------------------------|
D|-7~~-5h7---7-----------------------------------------------------------------|
A|-----------------------------------------------------------------------------|
E|-----------------------------------------------------------------------------|
              4x
E|------|--------------------13---13-15b-15b-15b-15b-15b-15-13-15-13-12-13~|
B|-8p6--|-13b-13b--13~--13p15---15-----------------------------------------|
G|------|------------------------------------------------------------------|
D|------|------------------------------------------------------------------|
A|------|------------------------------------------------------------------|
E|------|------------------------------------------------------------------|

E|---10-13--10-----10----------------------------|
B|-10-----10--13b15--13-10-----------13----------|
G|------------------------12b14-12b14--12b14-10--|
D|-----------------------------------------------|
A|-----------------------------------------------|
E|-----------------------------------------------|
Composição de Rogério Flausino
Colaboração e revisão:
  • Gabriel Blanco
  • danilo oliveira
264.022 exibições
    • ½ Tom
    • A
    • Bb
    • B
    • C
    • Db
    • D
    • Eb
    • E
    • F
    • F#
    • G
    • Ab
  • Adicionar à lista

    0 comentários

    Ver todos os comentários

    Conseguiu tocar?

    0 Tocaram 0 Ainda não

    Grave um vídeo tocando Amor Maior e nos envie!

    00:00 / 00:00
    Outros vídeos desta música
    Repetir Qualidade Automático
    Outros vídeos desta música
    00:00 / 00:00
    Automático
    Capítulos
    • Tocando a Música
    • Dicas Iniciais / Equipamentos
    • Acordes da Primeira Parte
    • Tocando a Primeira Parte
    • Ensinando a Primeira Parte
    • Acordes do Refrão
    • Tocando o Refrão
    • Ensinando o Ritmo do Refrão
    • Dicas para a Segunda Parte
    • Tocando a Segunda Parte
    • Ensinando o ritmo da Segunda Parte
    • Tocando o Solo Final
    • Solo - Parte 1 de 7
    • Solo - Parte 2 de 7
    • Solo - Parte 3 de 7
    • Solo - Parte 4 de 7
    • Solo - Parte 5 de 7
    • Solo - Parte 6 de 7
    • Solo - Parte 7 de 7
    • Encerramento
    • Ficha Técnica

    Cifra Club Pro

    Aproveite o Cifra Club com benefícios exclusivos e sem anúncios
    Cifra Club Pro
    Aproveite o Cifra Club com benefícios exclusivos e sem anúncios
    OK