Enviar cifraEntrar

Breaking The Law

Judas Priest

Tab de baixo: Principal
exibições 21.380
Introdução

Parte 01 (2x)
G|--------------------------------------------|
D|--------------------------------------------|
A|-0-0-0--0-0-0--0-0-0--0-0-0-----------------|
E|-----------------------------1-1-1--1-1-1---|

G|--------------------------------------------|
D|--------------------------------------------|
A|--------------------------------------------|
E|-3-3-3--3-3-3-3-----------------------------|

Primeira pate

There I was completely wasting...

Parte 1 de 3 (2x)
G|--------------------------------------------|
D|--------------------------------------------|
A|-0-0-0-0--0-0-0-0---0-0-0-0--0-0-0-0--------|
E|--------------------------------------------|

G|--------------------------------------------|
D|--------------------------------------------|
A|-3-3-3-3----------0-0-0-0--0-0-0-0----------|
E|---------3-3-3-3----------------------------|

Parte 2 de 3
G|--------------------------------------------|
D|--------------------------------------------|
A|--------------------------------------------|
E|-1-1-1-1--1-1-1-1--1-1-1-1--1-1-1-1---------|

G|--------------------------------------------|
D|--------------------------------------------|
A|-3-3-3-3--3-3-3-3--3-3-3-3--3-3-3-3---------|
E|--------------------------------------------|

Parte 3 de 3
G|--------------------------------------------|
D|--------------------------------------------|
A|--------------------------------------------|
E|-1-1-1-1--1-1-1-1--1-1-1-1--1-1-1-1---------|

G|--------------------------------------------|
D|--------------------------------------------|
A|--------------------------------------------|
E|-0-0-0-0--0-0-0-0--0------------------------|

Refrão

Breaking the law, breaking the law...

Parte 01 (2x)
G|--------------------------------9\----------|
D|--------------------------------7\----------|
A|-0-0-0-0--0-0-0-0--0-0-0-0-0-0--------------|
E|--------------------------------------------|

G|-----------------------------9-9\-----------|
D|-----------------------------7-7\-----------|
A|-0-0-0-0--0-0-0----0-0-0-0-0----------------|
E|--------------------------------------------|

Segunda parte 

Parte 1 de 4
G|--------------------------------------------|
D|--------------------------------------------|
A|-0-0-0-0--0-0-0-0---0-0-0-0--0-0-0-0--------|
E|--------------------------------------------|

G|--------------------------------------------|
D|--------------------------------------------|
A|-3-3-3-3----------0-0-0-0--0-0-0-0----------|
E|---------3-3-3-3----------------------------|

Parte 2 de 4
G|--------------------------------------------|
D|--------------------------------------------|
A|-0-0-0-0--0-0-0-0---0-0-0-0--0-0-0-0--------|
E|--------------------------------------------|

G|--------------------------------------------|
D|--------------------------------------------|
A|-3-3-3-3--5-5-5-5---------------------------|
E|------------------0-0-0-0--0-0-0-0----------|

Parte 3 de 4
G|--------------------------------------------|
D|--------------------------------------------|
A|--------------------------------------------|
E|-1-1-1-1--1-1-1-1--1-1-1-1--1-1-1-1---------|

G|--------------------------------------------|
D|--------------------------------------------|
A|-3-3-3-3--3-3-3-3--3-3-3-3--3-3-3-3---------|
E|--------------------------------------------|

Parte 4 de 4
G|--------------------------------------------|
D|--------------------------------------------|
A|--------------------------------------------|
E|-1-1-1-1--1-1-1-1--1-1-1-1--1-1-1-1---------|

G|--------------------------------------------|
D|--------------------------------------------|
A|--------------------------------------------|
E|-0-0-0-0--0-0-0-0--0------------------------|

Refrão 2:

Breaking the law, breaking the law...

Parte 1 de 2
G|--------------------------------9\----------|
D|--------------------------------7\----------|
A|-0-0-0-0--0-0-0-0--0-0-0-0-0-0--------------|
E|--------------------------------------------|

G|-----------------------------9-9\-----------|
D|-----------------------------7-7\-----------|
A|-0-0-0-0--0-0-0----0-0-0-0-0----------------|
E|--------------------------------------------|

Parte 2 de 2
G|--------------------------------9\----------|
D|--------------------------------7\----------|
A|-0-0-0-0--0-0-0-0--0-0-0-0-0-0--------------|
E|--------------------------------------------|

G|-----------------------------9--------------|
D|-----------------------------7--------------|
A|-0-0-0-0--0-0-0----0-0-0-0-0----------------|
E|--------------------------------------------|

Solo de Guitarra:

Parte 1 de 4
G|--------------------------------------------|
D|--------------------------------------------|
A|--------------------------------------------|
E|-7--7-7-7-7--7-7--7-7-7-7--7-7-7-7----------|

Parte 2 de 4 (3x)
G|--------------------------------------------|
D|--------------------------------------------|
A|--------------------------------------------|
E|-7-7-7-7--7-7-7-7--7-7-7-7--7-7-7-7---------|

Parte 3 de 4 (4x)
You don't know what it's like...
G|--------------------------------------------|
D|--------------------------------------------|
A|-5-5-5-5--5-5-5-5--5-5-5-5--5-5-5-5---------|
E|--------------------------------------------|

Parte 4 de 4
   .  .  .  . . . .  . . . .
G|--------------------------------------------|
D|--------------------------------------------|
A|--------------------------------------------|
E|-5--1--3--5-5-5-5--1-1-1-1--3-3-3-3-3-3-3-3-|

Introdução 2:

Parte 1 (2x)
G|--------------------------------------------|
D|--------------------------------------------|
A|-0-0-0-0--0-0-0-0--0-0-0-0--0-0-0-0---------|
E|--------------------------------------------|

G|--------------------------------------------|
D|--------------------------------------------|
A|--------------------------------------------|
E|-1-1-1-1--1-1-1-1--3-3-3-3--3-3-3-3---------|

Refrão 3 - Final

Breaking the law, breaking the law...

Parte 1 de 3 (2x)
G|--------------------------------------------|
D|--------------------------------------------|
A|-0-0-0-0--0-0-0-0--0-0-0-0--0-0-0-0---------|
E|--------------------------------------------|

G|--------------------------------------------|
D|--------------------------------------------|
A|--------------------------------------------|
E|-1-1-1-1--1-1-1-1--3-3-3-3--3-3-3-3---------|

Parte 2 de 3
G|--------------------------------------------|
D|--------------------------------------------|
A|-0-0-0-0--0-0-0-0--0-0-0-0--0-0-0-----------|
E|--------------------------------------------|

G|--------------------------------------------|
D|--------------------------------------------|
A|--------------------------------------------|
E|-1--1-1-1-1-1-1--3--3-3-3-3--3--------------|

Parte 3 de 3
G|--------------------------------------------|
D|--------------------------------------------|
A|-0--0-0-0--0-0-0-0--0-0-0-0--0-0-0----------|
E|--------------------------------------------|
                                    .
G|--------------------------------------------|
D|--------------------------------------------|
A|--------------------------------------------|
E|-1--1-1-1-1-1-1--3--3-3-3-3-3-3---5---------|
  • 1
  • 2
  • 3
  • 4
  • 5
  • 6
  • 7
  • 8
  • 9
  • 10
  • 11
  • 12
    Composição: Glenn Tipton / Håkan Lundqvist / K.K. DowningColaboração e revisão:
    • Caroline
    • Reginaldo

    0 comentários

      mostrar mais comentários

      Conseguiu tocar?

      13tocaram0ainda não

      Grave um vídeo tocando Breaking The Law e mande pra gente!

      00:00 / 00:00
      outros vídeos desta música
      repetirqualidadeautomática
      • automática
      Outro vídeos desta música
        Capítulos
        • Tocando a música
        • Dicas Iniciais / Equipamentos
        • Introdução
        • Primeira Parte - Parte 1 de 3
        • Primeira Parte - Parte 2 de 3
        • Primeira Parte - Parte 3 de 3
        • Refrão
        • Segunda Parte - Parte 1 de 4
        • Segunda Parte - Parte 2 de 4
        • Segunda Parte - Parte 3 de 4
        • Segunda Parte - Parte 4 de 4
        • Segundo Refrão - Parte 1 de 2
        • Segundo Refrão - Parte 2 de 2
        • Solo de Guitarra - Parte 1 de 4
        • Solo de Guitarra - Parte 2 de 4
        • Solo de Guitarra - Parte 3 de 4
        • Solo de Guitarra - Parte 4 de 4
        • Segunda Introdução
        • Terceiro Refrão - Parte 1 de 3
        • Terceiro Refrão - Parte 2 de 3
        • Terceiro Refrão - Parte 3 de 3
        • Encerramento
        • Ficha Técnica
        00:00 / 00:00
        automática
        • automática
        fecharplay/pause subir/descer velocidade
        fechar
        OK