Cifra Club

Aprenda

Quatro Estações

Kleber Lucas

Cifra: Versão 3 (violão e guitarra)
Já pensou em usar uma coleção de roupas do Cifra Club? Responda as perguntas abaixo e nos ajude nessa missão! →
tom: F
Base.: Bb  C  Dm  C  Bb  C  Dm  C  Bb  C  Dm  Bb/C
Solo.: 
e|--------------------8------------------------------------
B|--------6--8--8/10-----6/8--6--6/8--6-----8/10--6--8--6--
G|--5--7---------------------------------7-----------------
D|---------------------------------------------------------
A|---------------------------------------------------------
E|---------------------------------------------------------

e|-----------------|-----5--6--6/8--6--5--------8/12--8----
B|-----6--6--------|--6-------------------7--6-------------
G|--7--------7--5--|---------------------------------------
D|-----------------|---------------------------------------
A|-----------------|---------------------------------------
E|-----------------|---------------------------------------

e|--10------------8--------------|-------------------------
B|------8------8-----8--6--8--6--|-----6--6----------------
G|---------10--------------------|--7--------7--5--7--5----
D|-------------------------------|-------------------------
A|-------------------------------|-------------------------
E|-------------------------------|-------------------------

e|--------------------------8------13--15--10--|
B|---------------------6/8-----13--------------|
G|---------------5--7--------------------------|
D|--7/5--3/5--7--------------------------------|
A|---------------------------------------------|
E|---------------------------------------------|

e|--8----------------|
B|-----8--6----------|
G|-----------5p7--5--|
D|-------------------|
A|-------------------|
E|-------------------|
Composição de Kleber Lucas
Colaboração e revisão:
  • Julie Godoy
4.112 exibições
    • ½ Tom
    • A
    • Bb
    • B
    • C
    • Db
    • D
    • Eb
    • E
    • F
    • F#
    • G
    • Ab
  • Adicionar à lista

    0 comentários

    Ver todos os comentários
    00:00 / 00:00
    Outros vídeos desta música
    Repetir Qualidade Automático
    Outros vídeos desta música
    00:00 / 00:00
    Automático

    Cifra Club Pro

    Aproveite o Cifra Club com benefícios exclusivos e sem anúncios
    Cifra Club Pro
    Aproveite o Cifra Club com benefícios exclusivos e sem anúncios
    OK