Cifra Club

Aprenda

Ainda É Cedo

Legião Urbana

Tab de baixo: Principal
G|-------------------------------------------------------------------------------|
D|-------------------------------------------------------------------------------|
A|--5--5--5--5--5--5--5--5--5--5--5--5--5--5--5--5--3--3--3--3--3--3--3--3--3--3-|
E|-------------------------------------------------------------------------------|

G|-------------------------------------------------------------------------------|
D|-------------------------------------------------------------------------------|
A|--3--3--3--3--3--3--0--0--0--0--0--0--0--0--0--0--0--0--0--0--0--0--0--0--0--0-|
E|-------------------------------------------------------------------------------|

G|------------------------------------ 
D|------------------------------------ 
A|--0--0--0--0--0--0--0--0--0--0--0--0 
E|------------------------------------ 

G|-------------------------------------------------------------------------------|
D|-------------------------------------------------------------------------------|
A|--5--5--5--5--5--5--5--5--5--5--5--5--5--5--5-----3--3--3--3--3--3--3--3--3--3-|
E|-----------------------------------------------0-------------------------------|

G|-------------------------------------------------------------------------------|
D|-------------------------------------------------------------------------------|
A|--3--3--3--3--3-----0--0--0--0--0--0--0--0--0--0--0--0--0--0--0--0--0--0--0--0-|
E|-----------------0-------------------------------------------------------------|

G|------------------------------------ 
D|------------------------------------ 
A|--0--0--0--0--0--0--0--0--0--0--0--- 
E|-----------------------------------0 

G|-------------------------------------------------------------------------------|
D|-------------------------------------------------------------------------------|
A|--5--5--5--5--5--5--5--5--5--5--5--5--5--5--5--5--3--3--3--3--3--3--3--3--3--3-|
E|-------------------------------------------------------------------------------|

G|-------------------------------------------------------------------------------|
D|-------------------------------------------------------------------------------|
A|--3--3--3--3--3--3--0--0--0--0--0--0--0--0--0--0--0--0--0--0--0--0--0--0--0--0-|
E|-------------------------------------------------------------------------------|

G|------------------------------------ 
D|------------------------------------ 
A|--0--0--0--0--0--0--0--0--0--0--0--0 
E|------------------------------------ 

G|-------------------------------------------------------------------------------|
D|-------------------------------------------------------------------------------|
A|--5--5--5--5--5--5--5--5--5--5--5--5--5--5--5-----3--3--3--3--3--3--3--3--3--3-|
E|-----------------------------------------------0-------------------------------|

G|-------------------------------------------------------------------------------|
D|-------------------------------------------------------------------------------|
A|--3--3--3--3--3-----0--0--0--0--0--0--0--0--0--0--0--0--0--0--0--0--0--0--0--0-|
E|-----------------0-------------------------------------------------------------|

G|-----------------------------
D|----------7--5--3------------ 
A|-0--0--0---------------------
E|-------------------5--3--0--- 

G|-------------------------------------------------------------------------------|
D|-------------------------------------------------------------------------------|
A|--5--5--5--5--5--5--5--5--5--5--5--5--5--5--5-----3--3--3--3--3--3--3--3--3--3-|
E|-----------------------------------------------0-------------------------------|

G|-------------------------------------------------------------------------------|
D|-------------------------------------------------------------------------------|
A|--3--3--3--3--3-----0--0--0--0--0--0--0--0--0--0--0--0--0--0--0--0--0--0--0--0-|
E|-----------------0-------------------------------------------------------------|

G|--------------------- 
D|--------------9------ 
A|--0--0--0--7-----7--9 
E|---------------------

A partir de agora fica variando entre um e outro:

G|-------------------------------------------------------------------------------|
D|-------------------------------------------------------------------------------|
A|--5--5--5--5--5--5--5--5--5--5--5--5--5--5--5--5--3--3--3--3--3--3--3--3--3--3-|
E|-------------------------------------------------------------------------------|

G|-------------------------------------------------------------------------------|
D|-------------------------------------------------------------------------------|
A|--3--3--3--3--3--3--0--0--0--0--0--0--0--0--0--0--0--0--0--0--0--0--0--0--0--0-|
E|-------------------------------------------------------------------------------|

G|------------------------------------ 
D|------------------------------------ 
A|--0--0--0--0--0--0--0--0--0--0--0--0 
E|------------------------------------ 

G|-------------------------------------------------------------------------------|
D|-------------------------------------------------------------------------------|
A|--5--5--5--5--5--5--5--5--5--5--5--5--5--5--5-----3--3--3--3--3--3--3--3--3--3-|
E|-----------------------------------------------0-------------------------------|

G|-------------------------------------------------------------------------------|
D|-------------------------------------------------------------------------------|
A|--3--3--3--3--3-----0--0--0--0--0--0--0--0--0--0--0--0--0--0--0--0--0--0--0--0-|
E|-----------------0-------------------------------------------------------------|

G|------------------------------------ 
D|------------------------------------ 
A|--0--0--0--0--0--0--0--0--0--0--0--- 
E|-----------------------------------0 

No solo de guitarra final:
G|-------------------------------------------------------------------------------|
D|-------------------------------------------------------------------------------|
A|--5--5--5--5--5--5--5--5--5--5--5--5--5--5--5--5/1--3--3--3--3--3--3--3--3--3--|
E|-------------------------------------------------------------------------------|

G|-------------------------------------------------------------------------------|
D|-------------------------------------------------------------------------------|
A|--3--3--3--3--3----0--0--0--0--0--0--0--0--0--0--0--0--0--0--0--0--0--0--0--0-|
E|----------------0--------------------------------------------------------------|

G|-----------------------------
D|----------7--5--3------------ 
A|-0--0--0---------------------
E|-------------------5--3--0--- 

G|-------------------------------------------------------------------------------|
D|-------------------------------------------------------------------------------|
A|--5--5--5--5--5--5--5--5--5--5--5--5--5--5--5--5/1--3--3--3--3--3--3--3--3--3--|
E|-------------------------------------------------------------------------------|

G|-------------------------------------------------------------------------------|
D|-------------------------------------------------------------------------------|
A|--3--3--3--3--3----0--0--0--0--0--0--0--0--0--0--0--0--0--0--0--0--0--0--0--0-|
E|----------------0--------------------------------------------------------------|

G|--------------------- 
D|--------------9------ 
A|--0--0--0--7-----7--9 
E|---------------------

G|-------------------------------------------------------------------------------|
D|-------------------------------------------------------------------------------|
A|--5--5--5--5--5--5--5--5--5--5--5--5--5--5--5--5/1--3--3--3--3--3--3--3--3--3--|
E|-------------------------------------------------------------------------------|

G|-------------------------------------------------------------------------------|
D|-------------------------------------------------------------------------------|
A|--3--3--3--3--3----0--0--0--0--0--0--0--0--0--0--0--0--0--0--0--00--00--00--00-|
E|----------------0--------------------------------------------------------------|
Composição de Dado Villa-Lobos / Ico-Ouro Preto / Marcelo Bonfá / Renato Russo
Colaboração e revisão:
  • MARCOS
  • João Lobo
87.341 exibições

0 comentários

Ver todos os comentários
00:00 / 00:00
outros vídeos desta música
repetir qualidade Automático
Outros vídeos desta música
00:00 / 00:00
Automático

Cifra Club Pro

Aproveite o Cifra Club com benefícios exclusivos e sem anúncios
Cifra Club Pro
Aproveite o Cifra Club com benefícios exclusivos e sem anúncios
OK