Enviar cifraEntrar

Os Anjos

Legião Urbana

Cifra: Principal
exibições 196.085
Tom: D
Introdução

    G
E|---------------------------------|
B|-----7------7------7------7------|
G|-----7------7------7------7------|
D|-5-5----5-5----5-5----5-5--------|
A|---------------------------------|
E|---------------------------------|


RIFF 1

    D                    A
E|---------------------------------|
B|---75---5---3---2-2----2--0-2-=--|
G|-----------------------------2---|
D|-7-----5---4---2------2--2---2---|
A|---------------------------------|
E|---------------------------------|


      G       Em     A     D
E|-----7---5---3------5-----5------5------|
B|----------------------------------------|
G|-5/7---6---4----4/6---5/7----7-8---7-7--|
D|----------------------------------------|
A|----------------------------------------|
E|----------------------------------------|


(RIFF 1)  2x
       D
Hoje não dá
        A
Hoje não dá
        G
Não sei mais o que dizer
Em      A       D
E nem o que pensar
Hoje não dá
        A
Hoje não dá
               G                A
A maldade humana agora não tem nome
        D
Hoje não dá

RIFF 2

    G         A        D    A    Bm
E|-----------------------------------------|
B|---3--3------5---5----7----5----3----2---|
G|---4----4------6-------7---------4----2--|
D|-5---------7--------7----7----4----2-----|
A|-----------------------------------------|
E|-----------------------------------------|


(RIFF 2) 4x
        G               A
Pegue duas medidas de estupidez
        D       A/C#            Bm
Junte trinta e quatro partes de mentira
        G
Coloque tudo numa forma
   A
Untada previamente
        D       A/C#    Bm
Com promessas não cumpridas
G               A
Adicione a seguir o ódio e a inveja
        D       A/C#    Bm
As dez colheres cheias de burrice
   G            A
Mexa tudo e misture bem
        D       A/C#    Bm
E não se esqueça: antes de levar ao forno

RIFF 3

    D    A    Bm
E|----------------------|
B|---7----5----3----2---|
G|----7---------4----2--|
D|-7----7----4----2-----|
A|----------------------|
E|----------------------|


(RIFF 3) 3x
        D       A/C#    Bm
Temperar com essência de espirito de porco,
        D     A/C#          Bm
Duas xícaras de indiferença
          D   A/C#              Bm
E um tablete e meio de preguiça

(RIFF 1)  2x
        D
Hoje não dá
        A
Hoje não dá
        G              Em
Está um dia tão bonito lá fora
   A             D
E eu quero brincar
Mas hoje não dá
        A
Hoje não dá
        G               Em
Vou consertar a minha asa quebrada
A       D
E descansar

(RIFF 2) 4x
     G       A  D     A/C#     Bm       G
Gostaria de não saber destes crimes atrozes
        A       D    A/C#     Bm      G
É todo dia agora e o que vamos fazer?
        A           D      A/C#  Bm       G
Quero voar p'ra bem longe mas hoje não dá
        A       D     A/C#    Bm     G   A (RIFF 5)
Não sei o que pensar e nem o que dizer

 (RIFF 4)

  D    A                         G          A
E|-----------------|           e|------------------------|
B|---7----5--------|   RIFF 5  B|---3----3-------2---2---|
G|----7-----5-5----|    --->>  G|----4----4----2---------|
D|-7----7---5-5----|           D|-5----4-----2-----2-----|
A|-----------------|           A|------------------------|
E|-----------------|           E|------------------------|


(RIFF 4)
D   A/C#   Bm    G     (RIFF 5)
Só nos sobrou do amor
       A          G   A G D
A falta que ficou

      A       G     A G   D
E|------5----3-3-3-5-3---5--|
B|-----------------------7--|
G|-----------------------7--|
D|-5/7---7---5-5-5-7-5---7--|
A|--------------------------|
E|--------------------------|
  • 1
  • 2
  • 3
  • 4
  • 5
  • 6
  • 7
  • 8
  • 9
  • 10
  • 11
  • 12
    Acordes para:
      Composição: Dado Villa-Lobos / Renato RussoColaboração e revisão:
      • Lucas
      • keu

      0 comentários

        mostrar mais comentários

        Conseguiu tocar?

        12tocaram3ainda não

        Grave um vídeo tocando Os Anjos e mande pra gente!

        00:00 / 00:00
        outros vídeos desta música
        repetirqualidadeautomática
        • automática
        Outro vídeos desta música
          00:00 / 00:00
          automática
          • automática
          Acordes para:violão e guitarra
          dificuldadeexibiçõescontribuições
          1 versão de Tab de baixoexibiçõescontribuições
          fecharplay/pause subir/descer velocidade
            acordes
            fechar
            OK
            Feedback