Cifra Club

Aprenda

A Mulher Mais Feliz - Versão Bônus Dvd

Marco e Mario

Cifra: Principal (violão e guitarra)
tom: E
Eu sempre acreditei / Que fosse pra durar
Mais você não acreditou

G|-----------------------------------------|
D|-----------------------------------------|
A|----------8---8--------------------------|
E|-6---6-------------3---3----11----11-----|

Mas eu sempre achei amor /  No seu olhar /  E que por medo talvez 
Não quis se entregar 
G|------------------------------------------|
D|------------------------------------------|
A|-----8------------3-----3--------8----8---|
E|-6-6----3---3-------3-------11------------|

Eu quero olhar de novo pra você / E os seus olhos é que vão dizer  
G|------------------------------------------|
D|------------------------------------------|
A|----3--33---8--88-------------------------|
E|-----------------------6---6----11---11---|
       
Se alguma vez alguém já te amou / Mais do que eeeeeeu....
G|--------------------------------------------------|
D|--------------------------------------------------|
A|----3--33---8--88-----------------8---------------|
E|------------------------11-11--11-----------------|
        
Refrão: 
Deixa eu entrar / Abre a porta do seu coração 
Me tira desse frio e solidão / Eu não vou desistir de você 
G|--------------------------------------------------|
D|--------------------------------------------------|
A|----3--3--5---------------------8--8-----5--------|
E|--------------11--11----6--6----------------------|

Deixa eu provar / Que você não esta feliz assim 
Conheço cada gesto seu / E nada vai me fazer te esquecer... 
G|--------------------------------------------------|
D|--------------------------------------------------|
A|----3--3--5---------------------8--8-----5--------|
E|--------------11--11----6--6----------------------|

Deixa eu te fazer a mulher mais feliz... 
G|--------------------------------------------------|
D|--------------------------------------------------|
A|-----8-8------------------------------------------|
E|-11------6----------------------------------------|
Compositor não encontrado.
Colaboração e revisão:
  • IURY SILVA
5.149 exibições
    • ½ Tom
    • A
    • Bb
    • B
    • C
    • Db
    • D
    • Eb
    • E
    • F
    • F#
    • G
    • Ab
  • Adicionar à lista

    0 comentários

    Ver todos os comentários

    Conseguiu tocar?

    0 Tocaram 0 Ainda não

    Grave um vídeo tocando A Mulher Mais Feliz - Versão Bônus Dvd e nos envie!

    00:00 / 00:00
    Outros vídeos desta música
    Repetir Qualidade Automático
    Outros vídeos desta música
    00:00 / 00:00
    Automático

    Cifra Club Pro

    Aproveite o Cifra Club com benefícios exclusivos e sem anúncios
    Cifra Club Pro
    Aproveite o Cifra Club com benefícios exclusivos e sem anúncios
    OK